Oops, an error
Loading. Please wait.

Melissa Bass Tab

ver1
ver1

Whole song

Interactive

More versions @911Tabs.com
12,450 views 33 this week
no commentswrite comment
1 2 3 4 5
excellent!
x 5
Autoscroll
+/-
esc
set tempo
stop
Difficulty
intermediate
Hey! There's an official Ultimate Guitar app which is ideal
for learning songs when you're away from computer. Get the app
WARNING: You are trying to view
                                    content from Ultimate-Guitar.com
                                    in an unauthorized application,
                                    which is prohibited.

                                    Please use an official Ultimate
                                    Guitar Tabs application for iPhone,
                                    iPad or Android to access legitimate
                                    chords, guitar, bass, and drum tabs
                                    from Ultimate-Guitar.com database.

                                    Type "ultimate guitar tabs" in Apple
                                    App Store's or Android Market's
                                    search to find the application.
Tuning: Standard
Tabbed by: Michael
Band: The allman brothers
Song : Melissa

This is my version of it, I think its pretty close
      
|--------------------------------|4-------------------------------|
|--------------------------------|--------6-------4-------2-------|
|--------------------------------|----------------------------4---|
|--------------------------------|--------------------------------|

At Crossroads...       
|--------------------------------|--------------------------------|
|--------2-----------------------|--------------------2---2-------|
|----------------2h4-2-----------|----------------2-4---------4---|
|0-----------------------4---2---|2-------------------------------|

     
|--------------------------------|--------------------------------|
|--------------------2---2-------|--------------------2---2-------|
|----------------2-4---------4---|----------------2-4---------4---|
|4-------------------------------|2-------------------------------|

 
|--------------------------------|--------------------------------|
|--------2-----------------------|--------------------2---2-------|
|----------------2h4-2-----------|--------------2-2-4---------4---|
|0-----------------------4---0---|2-------------------------------|

At Knowing many     
|--------------------------------|--------------------------------|
|--------------------------------|----------------0-------0-------|
|0-------0-------2-------2-------|4-------4-----------------------|
|--------------------------------|--------------------------------|

      
|--------------------------------|1-------1-------2---2---2-------|
|2-------2-------4-------4-------|----------------------2---2-----|
|--------------------------------|----------------------------0---|
|----0---------------------------|--------------------------------|

At back home       
|------------------------2-------|--------------------------------|
|--------------------0h2-----2p0-|--------------------------------|
|3---------------3---------------|2-------------------------------|
|------3-0---3-------------------|--------------------------------|

At Melissa
|--------------------------------|--------------------------------|
|--------2-----------------------|--------------------2---2-------|
|----------------2h4-2-----------|----------------2-4---------4---|
|0-----------------------4---0---|2-------------------------------|

       
|--------------------------------|--------------------------------|
|--------------------2---2-------|------------4-5/--------2-------|
|----------------2-4---------4---|----------------------------4---|
|4-------------------------------|2-------------------------------|

At freight trains  
|--------------------------------|--------------------------------|
|--------------------------------|--------------------2---2-------|
|----------------2h4-2-----------|--------------2-2-4---------4---|
|0-----------------------4---0---|2-------------------------------|

      
|--------------------------------|--------------------------------|
|--------------------2---2-------|--------------------2---2-------|
|----------------2-4---------4---|----------------2-4---------4---|
|4-------------------------------|2---2---------------------------|

     
|--------------------------------|--------------------------------|
|--------2-----------------------|--------------------2---2-------|
|----------------2-4-2-----------|----------------2-4---------4---|
|0-----------------------4---0---|2-------------------------------|

      
|--------------------------------|--------------------------------|
|--------------------------------|----------------0-0-----0-------|
|0-------0---0-0-2-------2-------|4-------4---4-------------------|
|--------------------------------|--------------------------------|

        
|--------------------------------|1-------1-------2-2-----2-------|
|2-------2-------4-------4-------|----2-----------------2---2-----|
|--------------------------------|----------------------------0---|
|----0---------------------------|--------------------------------|

     
|----------------0---2---0-------|--------------------------------|
|----------------------------2p0-|--------------------------------|
|3-----------3-------------------|2-------------------------------|
|------3-0-3---------------------|--------------------------------|

      
|--------------------------------|--------------------------------|
|--------2-----------------------|----------------2---2-----------|
|----------------2h4-2-----------|------------2-4-------------4---|
|0-----------------------4---0---|2-------------------------------|

     
|--------------------------------|--------------------------------|
|----------------2---------------|------------2---4---2-----------|
|------------2-4-----4---2---4---|--------2h4-------------4---2---|
|4-------------------------------|2-------------------------------|

       
|--------------------------------|------------7---7---------------|
|--------2-------------------2---|--------5h7---------7-------7---|
|--------------2-----2---4-------|5-----------------------5-------|
|0---------------4---------------|--------------------------------|

       
|--------------------2---2-------|------------4---4-------4-------|
|------------2---4---------------|--------2-4-----------4-----4/0-|
|0-----0-4-------------------0---|2---2---------------------------|
|--------------------------------|--------------------------------|

     
|--------------------------------|--------------------------------|
|--------------------------------|--------------------------------|
|4-------4-------4-4-----4-------|0---0---4---0---0---0---0-------|
|--------------4-------4-------4-|----------------------------0---|

    
|--------------------------------|------------------------0-1-1-0-|
|------------------4---------4---|2-4-----------------------------|
|2-------2-------2---------------|----2---------------------------|
|--------------------------------|--------------------------------|

   
|--------------------------------|--------------------------------|
|--------2-----------------------|--------------------2---2-------|
|----------------2-4-2-----------|----------------2-4---------4---|
|0-----------------------4---0---|2-------------------------------|

      
|--------------------------------|--------------------------------|
|--------------------2---2-------|----4---4---------------2-------|
|--------------2-2-4---------4---|----------------2-4---------4---|
|4-------------------------------|2-------------------------------|

      
|--------------------------------|--------------------------------|
|--------2-----------------------|--------------------2---2-------|
|----------------2-4-2-----------|----------------2-4---------4---|
|0-------------4---------4---0---|2-------------------------------|

     
|--------------------------------|--------------------------2-----|
|--------------------------------|----------------0-------0---0---|
|0-----0-0-----0-2-------2-------|4---4---4---4-------------------|
|--------------------------------|--------------------------------|

      
|--------------------------------|1-------1-------2-------2-------|
|2-------2---2-2-4-------4-------|----------------------2---2-----|
|--------------------------------|----------------------------0---|
|----0---------------------------|--------------------------------|

    
|----------------0---2-2-0-------|--------------------------------|
|----------------------------0-2-|--------------------------4-5-6-|
|3-----------3-------------------|2-------------------------------|
|--------0-3---------------------|--------------------------------|

      
|--------------------------------|--------------------------------|
|--------2-----------------------|--------------------2---2-------|
|--------------2-2-4-2-----------|----------------2-4---------4---|
|0-----------------------4---0---|2-------------------------------|

      
|----------------0---2---0-------|--------------------------------|
|----------------------------2---|--------------------------------|
|3-----------3-------------------|2-------------------------------|
|------3-0-3---------------------|--------------------------------|

      
|--------------------------------|--------------------------------|
|--------------------------------|--------------------2---2-------|
|----------------2-4-2-----------|----------------2-4---------4---|
|0-----------------------4---0---|2-------------------------------|

      
|--------------------------------|--------------------------------|
|--------------------2---2-------|------------2---2-4-2-----------|
|----------------2-4---------4---|--------2-4-------------4---2---|
|4-------------4-----------------|2-------------------------------|

       
|--------------------------------|--------------------------------|
|--------2-----------------------|----------------2---2-----------|
|--------------2-2-4-2-----------|------------2-4---------4---2---|
|0-----------------------4---0---|2-------------------------------|

      
|--------------------------------|--------------------------------|
|--------------------2---2-------|----4---------------2---2-------|
|----------------2-4---------4---|----------------2-4-------------|
|4-------------------------------|2---------------------------4---|

     
|--------------------------------|--------------------------------|
|--------2-----------------------|--------4-----2-----2---2-------|
|----------------4---2-----------|----------------2-4---------4---|
|0-----------------------4---0---|2-------------------------------|

      
|--------------------------------|--------------------------------|
|--------------------2---2-------|--------------------2---2-------|
|----------------2-4---------4---|----------------2-4---------4---|
|4-------------4-----------------|2-------2-----------------------|

    
|--------------------------------|--------------------------------|
|----------------2---------------|--------------------2---2-------|
|--------------------4---2-------|----------------2-4---------4---|
|0-------0-------------------4---|2-------2-----------------------|

      
|--------------------------------|------------------------4---6---|
|--------------------2---2-------|------------2---4---6-----------|
|----------------2-4---------4---|--------4-----------------------|
|4-------4-----------------------|2-------------------------------|

    
|-----------------------------------------------------------------|
|----2---------------------------|--------------------2---2-------|
|--------4-------2-----------4---|--------4-------2-4---------4---|
|0-------------4-----4---0-------|2-------------------------------|
comments
print report bad tab
I want to post or [tab]
guest
You may want to rate the tab now too:
select rating
Please do not post tabs as comments. Select "correction" instead!