Oops, an error
Loading. Please wait.

One Way Out Tab

ver1
ver1

Whole song

Interactive

More versions @911Tabs.com
26,189 views 99 this week
no commentswrite comment
1 2 3 4 5
excellent!
x 4
Autoscroll
+/-
esc
set tempo
stop
Contributor
Difficulty
intermediate
WARNING: You are trying to view
                                    content from Ultimate-Guitar.com
                                    in an unauthorized application,
                                    which is prohibited.

                                    Please use an official Ultimate
                                    Guitar Tabs application for iPhone,
                                    iPad or Android to access legitimate
                                    chords, guitar, bass, and drum tabs
                                    from Ultimate-Guitar.com database.

                                    Type "ultimate guitar tabs" in Apple
                                    App Store's or Android Market's
                                    search to find the application.
=========================================================================
                    "ONE WAY OUT", The Allman Brothers Band
=========================================================================
*Email: playing.the.angel_@hotmail.com
*Sebastian            


>>Guitars I and II in standard tuning (EADGBE).
>>Guitar II: E A E A C# E

 4/4
  Gtr I
  Q  q  E E E E   E E E E E E E E   q  q  E E E E   E E E E E E E E
|---------------|-----------------|---------------|-----------------|
|---------------|-----------------|---------------|-----------------|
|---------------|-----------------|---------------|-----------------|
|----7--7p5---7-|---5-----5-5-7-7-|----7--7p5---7-|---5-------5-----|
|-----------7---|-------7---------|-0---------7---|-------7-----7-7-|
|---------------|-----------------|---------------|-----------------|


  q  q  E E E E   E E E E E E E E   q  q  E E E E   E E E E E Q     +E
|---------------|-----------------|---------------|-----------------------||
|---------------|-----------------|---------------|-----------------------||
|---------------|-----------------|---------------|-----------------------||
|----7--7p5---7-|---5-------5-7-7-|----7--7p5-----|---5-----5-------------||
|-0---------7---|-------7---------|-0---------7-7-|-------7---------------||
|---------------|-----------------|---------------|-----------8b9===(8)r--||


                                                     1.,2.,3.
    q  q  E E E E   E E E E E E E E   q  q  E E E E   E E E E E E E E
||----------------|-----------------|---------------|------------------||
||o---------------|-----------------|---------------|-----------------o||
||----------------|-----------------|---------------|------------------||
||-----7--7p5---7-|---5-----5-5-7-7-|----7--7p5---7-|---5-----5-5------||
||o-0---------7---|-------7---------|-0---------7---|-------7-----7-7-o||
||----------------|-----------------|---------------|------------------||


  4.
  E E E E E Q    +E    q  q  E E E E   E E E E E E E E   q  q  E E E E
|--------------------|---------------|-----------------|----------------|
|--------------------|---------------|-----------------|----------------|
|--------------------|---------------|-----------------|----------------|
|---5-----5----------|----7--7p5---7-|---5-----5-5-7-7-|----7--7p5---7--|
|-------7------------|-0---------7---|-------7---------|-0---------7----|
|-----------8b9--(8)-|---------------|-----------------|----------------|


  E E E E E E E E   q  q  E E E E   E E E E E E E E   q  q  E E E E
|-----------------|---------------|-----------------|----------------|
|-----------------|---------------|-----------------|----------------|
|-----------------|---------------|-----------------|----------------|
|---5-----5-5-----|----7--7p5---7-|---5-----5-5-7-7-|----7--7p5---7--|
|-------7-----7-7-|-0---------7---|-------7---------|-0---------7----|
|-----------------|---------------|-----------------|----------------|


                      N.C(A7)
  E E E E E E E  E     q   q   E  E  E  E
|------------------||---------------------|
|------------------||---------------------|
|------------------||---------------------|
|---5-----5-5------||------7---7p=5-----7-|
|-------7-----7--7-||--0-------------7----|
|------------------||---------------------|
|
|             Gtr II
| H       Q   Q        q   q   E  E  E  E
|------------------||---------------------|
|------------------||---------------------|
|------------------||-12--12--12s10----12-|
|------------------||---------------12----|
|------------------||---------------------|
|-------------5/---||---------------------|


  E     E E  E  E E  E  E    q    q   E  E  E  E
|-------------------------|----------------------|
|-------------------------|----------------------|
|-------------------------|----------------------|
|-------5-------5-5--7--7-|-------7---7p=5-----7-|
|------------7------------|--0--------------7----|
|-------------------------|----------------------|
|
|                                              ~~
| E  a  E E  E  Q    Q       q    q   E  E  E  E
|-------------------------|----------------------|
|-------------------------|----------------------|
|---12s10------10---12\---|-----/12--12s10----12-|
|-----------12------------|----------------12----|
|-------------------------|-12-------------------|
|-------------------------|----------------------|


   E E E E E E  E E    q   q   E  E  E  E
|-------------------|---------------------|
|-------------------|---------------------|
|-------------------|---------------------|
|----5-----5-5------|------7---7p=5-----7-|
|--------7------7-7-|--0-------------7----|
|-------------------|---------------------|
|
|  ~~~~~~~~~~~~~~~
|  H.           E E    q   q   E  E  E  E
|-------------------|---------------------|
|-------------------|---------------------|
|-12s==========16---|-----12--12s10----12-|
|-------------------|---------------12----|
|-------------------|-12------------------|
|-------------------|---------------------|


  E     E E  E  E E  E  E    q    q   E  E  E  E
|-------------------------|----------------------|
|-------------------------|----------------------|
|-------------------------|----------------------|
|-------5-------5-5--7--7-|-------7---7p=5-----7-|
|------------7------------|--0--------------7----|
|-------------------------|----------------------|
|
|                                              ~~
| E  a  E E  E  Q    Q       q    q   E  E  E  E
|-------------------------|----------------------|
|-------------------------|----------------------|
|---12s10------10---12\---|-----/12--12s10----12-|
|-----------12------------|----------------12----|
|-------------------------|-12-------------------|
|-------------------------|----------------------|


                             (D7)
   E E E E   E   E     E E   q    q   E  E  E  E
|--------------------------|---------------------|
|--------------------------|---------------------|
|--------------------------|------7---7p=5-----7-|
|----5-------5---5---------|----------------7----|
|--------7-------------7-7-|-5-------------------|
|--------------------------|---------------------|
|
|  ~~~~~~~~~~~~~
|  H        +E   E  a  Q     Q    Q   E  E  E  E
|--------------------------|---------------------|
|------------------10s12---|---------------------|
|-12-------(12)------------|----/12--12s10----12-|
|---------------12---------|---------------12----|
|--------------------------|---------------------|
|--------------------------|---------------------|


  E     E E  E     E E  E E    q   q   E  E  E  E
|---------------------------|---------------------|
|---------------------------|---------------------|
|-------5----------5-5--7-7-|------7---7p=5-----7-|
|------------7--------------|----------------7----|
|---------------------------|--5------------------|
|---------------------------|---------------------|
|
|                                               ~~
| E  a  E E  E  a  Q    Q      q   q   E  E  E  E
|---------------------------|---------------------|
|---------------------------|---------------------|
|---12s10---------10---12---|-----12--12s10----12-|
|-----------12-10-----------|---------------12----|
|---------------------------|-12------------------|
|---------------------------|---------------------|


                         (A7)
   E  E E  E  E E   Q     q    q   E  E  E  E
|----------------------|----------------------|
|----------------------|----------------------|
|-----5-------5-5---7--|----------------------|
|----------7-----------|-------7---7p=5-----7-|
|----------------------|--0--------------7----|
|----------------------|----------------------|
|
|  ~~~
|  Q.      E  Q   a q     q    q   E  E  E  E
|----------------------|----------------------|
|----------------------|----------------------|
|-12-------------------|-----/12--12s10----12-|
|------------12s==8s9--|----------------12----|
|---------12-----------|-12-------------------|
|----------------------|----------------------|


  E  E E  E     E E  E  E    q    q   E  E  E  E
|-------------------------|-----------------------|
|-------------------------|-----------------------|
|-------------------------|-----------------------|
|----5----------5-5--7--7-|-------7---7p=5-----7--|
|---------7---------------|--0--------------7-----|
|-------------------------|-----------------------|
|
|                                              ~~
| E  E E  E  a  Q    E  E    q    q   E  E  E  E
|-------------------------|-----------------------|
|-------------------------|-----------------------|
|---10------12s10---12s10-|-----/12--12s10----12--|
|--------12---------------|----------------12-----|
|-------------------------|-12--------------------|
|-------------------------|-----------------------|


                             (E7)
   E  E E  E     E E  q       q   q   E  E  E  E
|--------------------------|---------------------|
|--------------------------|---------------------|
|--------------------------|------9---9p=7-----9-|
|-----5----------5-5-------|----------------9----|
|----------7----------5----|--7------------------|
|--------------------------|---------------------|
|
|  ~~~
|  Q.      E  a  q    E  E    q   q   E  E  E  E
|--------------------------|---------------------|
|------------10s12---------|---------------------|
|-12-----------------12s10-|-----12--12s10----12-|
|---------12---------------|---------------12----|
|--------------------------|-12------------------|
|--------------------------|---------------------|


                           (D7)
  E  E E  E     q   q       q    q   E  E  E  E
|------------------------|-----------------------|
|------------------------|-----------------------|
|----7----------7---9----|-------7---7p=5-----7--|
|---------9--------------|-----------------7-----|
|------------------------|--5--------------------|
|------------------------|-----------------------|
|
|                                             ~~
| E  E E  E  a  Q   E  E    q    q   E  E  E  E
|------------------------|-----------------------|
|------------------------|-----------------------|
|---10------12s10--12s10-|-----/12--12s10----12--|
|--------12--------------|----------------12-----|
|------------------------|-12--------------------|
|------------------------|-----------------------|


                        (A7)
   E  E E  E  E E E E    q    q   E  E  E  E
|---------------------|----------------------|
|---------------------|----------------------|
|-----5-------5-5-----|----------------------|
|----------7------7-7-|-------7---7p=5-----7-|
|---------------------|--0--------------7----|
|---------------------|----------------------|
|
|  ~~~
|  Q.      E  Q   q      q    Q   E  E  E  E
|---------------------|----------------------|
|---------------------|----------------------|
|-12------------------|-----/12--12s10----12-|
|------------10s==9---|----------------12----|
|---------12----------|-12-------------------|
|---------------------|----------------------|


  E     E E  E     E E  E  E    q    q   E  E  E  E     E  E E E E E E E
|----------------------------|----------------------|--------------------||
|----------------------------|----------------------|--------------------||
|----------------------------|----------------------|--------------------||
|-------5----------5-5--7--7-|-------7---7p=5-----7-|------5-----5-5-----||
|------------7---------------|--0--------------7----|----------7-----7-7-||
|----------------------------|----------------------|--------------------||
|
|                                                 ~~~~~~~~~
| E  a  E E  E  a  Q    Q       q    q   E  E  E  E    +H.           Q
|----------------------------|----------------------|--------------------||
|----------------------------|----------------------|--------------------||
|---12s10------12s10---12\---|-----/12--12s10----12-|-(12)---------------||
|-----------12---------------|----------------12----|--------------------||
|----------------------------|-12-------------------|--------------------||
|----------------------------|----------------------|--------------------||


 1st Verse
  N.C.(A7)
    q  q   E  E  E  E   E     E E  E  E E E  E
|---------------------|------------------------|
|---------------------|------------------------|
|---------------------|------------------------|
|------7---7p=5-----7-|-------5-------5-5-7--7-|
|---0------------7----|------------7-----------|
|---------------------|------------------------|
|
|   Q  Q   E  E  E  E   E  a  E E  E  Q   E  E
|---------------------|------------------------|
|-/12-----------------|---------------------11s|
|-/12-----12s10----12-|---12s10------10-----11s|
|---------------12----|-----------12-----------|
|---------------------|------------------------|
|---------------------|------------------------|


   q  q   E  E  E  E   E     E E  E  E E  E  E   q   q   E  E  E  E
|--------------------|-------------------------|--------------------|
|--------------------|-------------------------|--------------------|
|--------------------|-------------------------|--------------------|
|-----7---7p=5-----7-|-------5-------5-5-------|-----7---7p=5-----7-|
|--0------------7----|------------7-------7--7-|-0-------------7----|
|--------------------|-------------------------|--------------------|
|
|  Q  Q   E  E  E  E   E  a  E E  E  Q    Q      q   q   E  E  E  E
|--------------------|-------------------------|--------------------|
|-12-----------------|-------------------------|--------------------|
|-12-----12s10----12-|---12s10------10---------|----12--12s10----12-|
|--------------12----|-----------12------------|--------------12----|
|--------------------|-------------------12\---|-0------------------|
|--------------------|-------------------------|--------------------|


  E     E E  E  E E E  E    q  q   E  E  E  E     E  E E  E     E E  E  E
|------------------------|--------------------|---------------------------|
|------------------------|--------------------|---------------------------|
|------------------------|--------------------|---------------------------|
|-------5-------5-5-7--7-|-----7---7p=5-----7-|------5----------5-5-------|
|------------7-----------|--0------------7----|-----------7----------7--7-|
|------------------------|--------------------|---------------------------|
|
|                                           ~~~~~~~~~
| E  a  e E  E  Q   E  E    Q  Q   E  E  E  E    +Q.      E  a  q    Q
|------------------------|--------------------|---------------------------|
|---------------------11s|=12-----------------|-------------10s12---------|
|---12s10------10-----11s|=12-----12s10----12-|-(12)----------------12\---|
|-----------12-----------|--------------12----|----------12---------------|
|------------------------|--------------------|---------------------------|
|------------------------|--------------------|---------------------------|


  (D7)
   q   q   E  E  E  E   E     E E  E  E E  E  E
|---------------------|---------------------------|
|---------------------|---------------------------|
|------7---7p=5-----7-|-------5-------5-5--7--7---|
|----------------7----|------------7--------------|
|--5------------------|---------------------------|
|---------------------|---------------------------|
|
|  q   q   E  E  E  E   E  a  E E  E  Q    E  E
|---------------------|---------------------------|
|---------------------|---------------------------|
|-----12--12s10----12-|---12s10------10---12s10---|
|---------------12----|-----------12--------------|
|-12------------------|---------------------------|
|---------------------|---------------------------|


   q    q   E  E  E  E     E  E E  E     E E     E E
|----------------------|-----------------------------|
|----------------------|-----------------------------|
|-------7---7p=5-----7-|------5----------5-5---------|
|-----------------7----|-----------7-------------7-7-|
|--5-------------------|-----------------------------|
|----------------------|-----------------------------|
|
|                    ~~~~~~~~~
|  q    q   E  E  E  E    +Q.      E  a  Q    a  E E
|----------------------|-----------------------------|
|----------------------|-------------10s12-----------|
|-----/12--12s10----12-|-(12)------------------------|
|----------------12----|----------12---------12s10s8-|
|-12-------------------|-----------------------------|
|----------------------|-----------------------------|


  (A7)
  q   q   E  E  E  E   E     E E  E  E E  E  E    q   q   E  E  E  E
|--------------------|-------------------------|-----------------------|
|--------------------|-------------------------|-----------------------|
|--------------------|-------------------------|-----------------------|
|-----7---7p=5-----7-|-------5-------5-5--7--7-|------7---7p=5-----7---|
|-0-------------7----|------------7------------|--0-------------7------|
|--------------------|-------------------------|-----------------------|
|
|                                                                  ~~
| Q   q   E  E  E  E   E  a  E E  E  Q    E  E    q   q   E  E  E  E
|--------------------|-------------------------|-----------------------|
|--------------------|-------------------------|-----------------------|
|----12--12s10----12-|---12s10------10---12s10-|-----12--12s10----12---|
|--------------12----|-----------12------------|---------------12------|
|--------------------|-------------------------|-12--------------------|
|--------------------|-------------------------|-----------------------|


                      (A7)
   W                    W
   E E E E E E  q       q    q   E  E  E  E
|-------------------|-----------------------|
|-------------------|-----------------------|
|-------------------|--------9---9p=7-----9-|
|----5-----5-5------|------------------9----|
|--------7------5---|---7-------------------|
|-------------------|-----------------------|
|
|  ~~~~~~~~~~~~~~~
|  H.           E E     q    q   E  E  E  E
|-------------------|-----------------------|
|-------------------|-----------------------|
|-12s==========16---|-(12)--12--12s10----12-|
|-------------------|-----------------12----|
|-------------------|-----------------------|
|-------------------|-----------------------|


                             D5
                             Gtr I
  W                          Q  Q  H      W
                             |
                             /

  E     E E  E     q   q     W            W
|--------------------------|------------|-------------|
|--------------------------|------------|-------------|
|-------7----------7---9---|------------|-------------|
|------------9-------------|------------|-------------|
|--------------------------|------------|-------------|
|--------------------------|------------|-------------|
|
| E  a  E E  E  a  Q   Q     Q  Q  H      H    E Q.
|--------------------------|------------|-------------|
|--------------------------|-5----------|-------------|
|---12s10------12s10--12\--|-5----------|-------------|
|-----------12-------------|-5----------|-------------|
|--------------------------|------------|-------------|
|--------------------------|------------|--------1s===|


  N.(A7)
  Gtr I
  q    q   E  E  E  E   E     E E  E  E E  E E
|---------------------|------------------------|
|---------------------|------------------------|
|---------------------|------------------------|
|------7---7p=5-----7-|-------5-------5-5--7-7-|
|-0--------------7----|------------7-----------|
|---------------------|------------------------|
|
| E E  q   E  E  E  E   E  a  E E  E  Q    Q
|---------------------|------------------------|
|---------------------|------------------------|
|-----12--12s10----12-|---12s10------10---12---|
|---------------12----|-----------12-----------|
|---------------------|------------------------|
|-x-------------------|------------------------|


   q   q   E  E  E  E     E  E E E E E  E E
|---------------------|---------------------||
|---------------------|---------------------||
|---------------------|---------------------||
|------7---7p=5-----7-|------5-----5-5------||
|--0-------------7----|----------7------7-7-||
|---------------------|---------------------||
|
|                   ~~~~~~~~~
|  q   q   E  E  E  E    +H.            Q
|---------------------|----------------11s==||
|---------------------|----------------11s==||
|-----12--12s10----12-|-(12)-----------11s==||
|---------------12----|---------------------||
|-12------------------|---------------------||
|---------------------|---------------------||


 2nd Verse
  N.C(A7)
   q  q   E  E  E  E   E     E E  E  E E  E  E
|--------------------|-------------------------|
|--------------------|-------------------------|
|--------------------|-------------------------|
|-----7---7p=5-----7-|-------5-------5-5--7--7-|
|--0------------7----|------------7------------|
|--------------------|-------------------------|
|
|  Q  Q   E  E  E  E   E  a  E E  E  Q    E  E
|-12-----------------|----------------------11s|
|-12-----------------|----------------------11s|
|-12-----12s10----12-|---12s10------10---12----|
|--------------12----|-----------12------------|
|--------------------|-------------------------|
|--------------------|-------------------------|


   q  q   E  E  E  E     E  E E E E E E  E
|--------------------|----------------------|
|--------------------|----------------------|
|--------------------|----------------------|
|-----7---7p=5-----7-|------5-----5-5-------|
|--0------------7----|----------7-----7--7--|
|--------------------|----------------------|
|
|                  ~~~~~~~~~
|  Q  Q   E  E  E  E    +H.           E  E
|-12-----------------|------------------11s=|
|-12-----------------|------------------11s=|
|--------12s10----12-|-(12)-----------------|
|--------------12----|----------------------|
|--------------------|----------------------|
|--------------------|----------------------|


   q  q   E  E  E  E   E     E E  E  E E E  E
|--------------------|------------------------|
|--------------------|------------------------|
|--------------------|------------------------|
|-----7---7p=5-----7-|-------5-------5-5-7--7-|
|--0------------7----|------------7-----------|
|--------------------|------------------------|
|
|  Q  Q   E  E  E  E   E  a  E E  E  Q   E  E
|-12-----------------|------------------------|
|-12-----------------|---------------------11s|
|--------12s10----12-|---12s10------10-----11s|
|--------------12----|-----------12-----------|
|--------------------|------------------------|
|--------------------|------------------------|


   q  q   E  E  E  E     E  E E  E  E  E  E  E
|--------------------|-------------------------|
|--------------------|-------------------------|
|--------------------|-------------------------|
|-----7---7p=5-----7-|------5-------5--5-------|
|--0------------7----|-----------7--------7--7-|
|--------------------|-------------------------|
|
|                  ~~~~~~~~~
|  Q  Q   E  E  E  E    +Q.      E  E  E  E  E
|--------------------|-------------------------|
|-12-----------------|-------------12s11-------|
|-12-----12s10----12-|-(12)--------------12s10-|
|--------------12----|----------12-------------|
|-----0--------------|-------------------------|
|--------------------|-------------------------|


  (D7)
  q    q   E  E  E  E   E     E E  E     E E  E E
|---------------------|---------------------------|
|---------------------|---------------------------|
|------7---7p=5-----7-|-------5----------5-5--7-7-|
|----------------7----|------------7--------------|
|-5-------------------|---------------------------|
|---------------------|---------------------------|
|
| Q    q   E  E  E  E   E  a  E E  E  a  Q    Q
|---------------------|---------------------------|
|---------------------|---------------------------|
|----/12--12s10----12-|---12s10------12s10s==12---|
|---------------12----|-----------12--------------|
|---------------------|---------------------------|
|---------------------|---------------------------|


   q   q   E  E  E  E     E  E E E     E E Q
|---------------------|-----------------------|
|---------------------|-----------------------|
|------7---7p=5-----7-|------5---------5-5-7--|
|----------------7----|----------7------------|
|--5------------------|-----------------------|
|---------------------|-----------------------|
|
|                   ~~~~~~~~~
|  q   q   E  E  E  E    +Q.     E  a  Q   q
|---------------------|-----------------------|
|---------------------|-----------------------|
|-----12--12s10----12-|-(12)------------------|
|---------------12----|------------12s10s==9--|
|-12------------------|-----------------------|
|---------------------|-----------------------|


  (A7)
  q    q   E  E  E  E   E     E E  E     E E  E E
|---------------------|---------------------------|
|---------------------|---------------------------|
|---------------------|---------------------------|
|------7---7p=5-----7-|-------5----------5-5--7-7-|
|-0--------------7----|------------7--------------|
|---------------------|---------------------------|
|
| Q    q   E  E  E  E   E  a  E E  E  a  Q    q
|---------------------|---------------------------|
|---------------------|---------------------------|
|----/12--12s10----12-|---12s10------12s10---12---|
|---------------12----|-----------12--------------|
|---------------------|---------------------------|
|---------------------|---------------------------|


   q    q   E  E  E  E     E  E E E E E q
|----------------------|------------------|
|----------------------|------------------|
|----------------------|------------------|
|-------7---7p=5-----7-|------5-----5-5---|
|--0--------------7----|----------7-----5-|
|----------------------|------------------|
|
|                    ~~~~~~~~~
|  q    q   E  E  E  E    +W
|----------------------|------------------|
|----------------------|------------------|
|-----/12--12s10----12-|-(12)-------------|
|----------------12----|------------------|
|-12-------------------|------------------|
|----------------------|------------------|


  (E7)                                         D5
                                               Gtr I
   W                    W                      Q  Q  H      W
                                               |
                                               /

   q  q      E E E  E   E     E E  E  q   q    W            W
|---------------------|----------------------|------------|------------|
|---------------------|----------------------|------------|------------|
|-----9------9p7----9-|-------7-------7---9--|------------|------------|
|----------------9----|------------9---------|------------|------------|
|--7------------------|----------------------|------------|------------|
|---------------------|----------------------|------------|------------|
|
|  q  Q   a  q   E  E   E  a  E E  E  Q   q    Q  Q  H      H    E Q.
|-10------------------|----------------------|------------|------------|
|-10------------------|----------------------|-5----------|------------|
|--------10s12-----10-|---10s12------10--12--|-5----------|------------|
|---------------------|-----------10---------|-5----------|------------|
|---------------------|----------------------|------------|------------|
|---------------------|----------------------|------------|--------0/--|


  N.(A7)
  Gtr I
  q    q   E  E E  E   E  a  E E  E     Q   E  E
|--------------------|---------------------------|
|--------------------|---------------------------|
|--------------------|---------------------------|
|----------7p=5----7-|----7S=5----------5---7--5-|
|-0----7--------7----|------------7--------------|
|--------------------|---------------------------|
|
| q    q   E  E E  E   E  a  E E  E  a  Q   Q
|--------------------|---------------------------|
|--------------------|---------------------------|
|----/12--12s10---12-|---12s10------12s10--12\---|
|--------------------|-----------12--------------|
|--------------------|---------------------------|
|-x------------------|---------------------------|


                                Gtr III
  q   q   E  E  E  E    +Q   Q   q   q
|--------------------|--------------------||
|--------------------|----------10--10----||
|--------------------|--------------------||
|-----7---7p=5-----7-|--(7)\--------------||
|-0-------------7----|--------------------||
|--------------------|--------------------||
|
|                  ~~~~~~~~~~~~~~~~~~~~
| Q   Q   E  E  E  E    +H.          e E
|--------------------|--------------------||
|--------------------|--------------------||
|----12--12s10----12-|-(12)s========17----||
|--------------12----|--------------------||
|-0------------------|--------------------||
|--------------------|--------------------||


 Guitar Solo I
  (A7)
  ~
  W               Q   Q       a      +E   E  q
|-8-------------|----10b12---10pb12r(10)p=8------|
|---------------|---------------------------10---|
|---------------|--------------------------------|
|---------------|--------------------------------|
|---------------|--------------------------------|
|---------------|--------------------------------|
|
| Gtr II
| Q  E E E Q  E   q   E    E          E   E  E E
|---------------|--------------------------------|
|---------------|--------------------------------|
|----0-0---0----|---------------------3b4-0------|
|----0-0-0------|-3---3----0-----------------0-0-|
|----0-0------0-|--------------------------------|
|---------------|--------------------------------|


   ~~
   H     Q   +E    E   H      E  E E E
|--------8---(8)b9---|-------------8---|
|-10-----------------|--------8-10---8-|
|--------------------|-----------------|
|--------------------|-----------------|
|--------------------|-----------------|
|--------------------|-----------------|
|
|  q  q  e E  E    E   q  E E E  E e e
|--------------------|-----------------|
|--------------------|-----------------|
|----------0---------|-----------------|
|-----0-------0----0-|-3--3-0------0-0-|
|--0--0--0-----------|--------3--0-----|
|--------------------|-----------------|


                                     ~~~~~~~~
   W                    +H        E  Q.
|-10b12==============|=(10)r------8---------|
|--------------------|--------------10------|
|--------------------|----------------------|
|--------------------|----------------------|
|--------------------|----------------------|
|--------------------|----------------------|
|
| +Q      Q  E E E E     q    E E E  E  E E
|--------------------|----------------------|
|--------------------|----------------------|
|---------0----------|---------------0------|
|-(0)-----0----2---0-|---3----3-0---------0-|
|---------0----0-0---|---0--------3-----0---|
|--------------------|----------------------|


                      N.C.
 ~~~~
   H     q    E E   E  E E E  E E E E
|-----------------|---------------------|
|-10-----8---10---|-8-10p8---10---8-----|
|---------------9-|--------9----9---9s==|
|-----------------|---------------------|
|-----------------|---------------------|
|-----------------|---------------------|
|
|  q  Q  E E  E E   E  E Q    Q   Q
|-----------------|---------------------|
|-----------------|---------------------|
|-----0-----------|---------------------|
|--0--0----2----0-|-3-------------------|
|--0--0----0--0---|-0--0-2----3---4-----|
|-----------------|---------------------|


  (D7)
                                       |-----3------|
   E  E  E  E  Q     E  E    Q   E  E  E     +E     E  E  E
|-------------------------|---------------------------------|
|----10-12----10----12----|-10--12p10-12b13r(12)---10-12----|
|-11-------11----------11-|------------------------------11-|
|-------------------------|---------------------------------|
|-------------------------|---------------------------------|
|-------------------------|---------------------------------|
|
|  q     Q    +E  E  E  E    q   E  E  E         E     E  E
|-------------------------|---------------------------------|
|-------------------------|---------------------------------|
|--------5----(5)----5----|---------5-----------------------|
|--------5----(5)-7-----5-|--8---8--5------------7--------5-|
|--5-----5----(5)---------|----------------------5--------5-|
|-------------------------|---------------------------------|


   E   E      +Q     E  E      +Q        E  E      +Q      E  Q        +E
|-------------------12----------------|-12----------------12----------------|
|-10--12b13==(12)r-----12b13==(12)r---|----12b13==(12)r------12pb13r==(12)--|
|-------------------------------------|-------------------------------------|
|-------------------------------------|-------------------------------------|
|-------------------------------------|-------------------------------------|
|-------------------------------------|-------------------------------------|
|
| +Q           Q     E  E       E   E    q          E   E  E  E     Q
|-------------------------------------|-------------------------------------|
|-------------------------------------|-------------------------------------|
|-----------------------5-------5-----|-----------------5-----5-------------|
|-(5)----------5--------------------5-|--8----------8---5-----5-------------|
|-(5)----------5----------------------|--------------------5----------------|
|-------------------------------------|-------------------------------------|


  (A7)
   ~~~~~~~~~~                               ~~~~~~~~
   H      Q.      E    E  Q        +E    E  Q.
|-------------------|------------------------------|
|-10-----10---------|-10-12b14====(12)r-10---------|
|----------------11-|----------------------11------|
|-------------------|------------------------------|
|-------------------|------------------------------|
|-------------------|------------------------------|
|
|  q  Q   E  E E  E    q        E   E    E  E  E E
|-------------------|------------------------------|
|-------------------|------------------------------|
|-------------------|------------------------------|
|--0--0------2------|--3--------3---0-------2----0-|
|--0--0---0----0--0-|--0-----------------0-----0---|
|-------------------|------------------------------|


 ~~~~~
   H       Q    Q          +Q      Q    Q       Q
|--------------12b14====|=(12)r---12---12b14---12----|
|-10------10------------|----------------------------|
|-----------------------|----------------------------|
|-----------------------|----------------------------|
|-----------------------|----------------------------|
|-----------------------|----------------------------|
|
|  Q   Q   E E  E     E     E   E  E E  E    E  E E
|-----------------------|----------------------------|
|-----------------------|----------------------------|
|------------0--------0-|----------------------------|
|-(0)--0-----2--------0-|---3---x--3-x-------2----0--|
|--0---0---0----0-------|---0---x--0-x--0-------0----|
|-----------------------|----------------------------|


  (E7)
   ~~~~~~~~~~~~
   H         H          E  E  Q   Q.     +E
|-12b14-----12-------|-10h12-10---8------(8)b9-|
|--------------------|----12-10----------------|
|--------------------|-------------------------|
|--------------------|-------------------------|
|--------------------|-------------------------|
|--------------------|-------------------------|
|
|  q     Q   E E E E    q     E E E  Q.
|--------------------|-------------------------|
|--------------------|-------------------------|
|--7-----7-----------|---------------7---------|
|--7-----7-----9-----|-10----10-7----7---------|
|--7-----7-------7-7-|--7-----7---7--7---------|
|--------------------|-------------------------|


  D5
           ~                          ~~~
   Q  E  E Q   E E    Q   Q     E  E  Q
|-----8----8--10p8-|-10--10b12--8-----8--|
|-10----10---------|--------------10-----|
|------------------|---------------------|
|------------------|---------------------|
|------------------|---------------------|
|------------------|---------------------|
|
|  Q  Q    H          H         Q     Q
|------------------|---------------------|
|------------------|---------------------|
|--5---------------|---------------------|
|--5---------------|---------------------|
|--5---------------|-----------------15\-|
|------------------|---------------------|


  (A7)
   ~~
   H     q    E E   E E q      E  E E E   Q  E E E E E E   E E Q   Q   E E
|-----------------|---------------------|----------------|------------------||
|-10-----8---10---|-8-------------------|----------------|---------8---5-8--||
|---------------9-|---9p7------5h=6-----|--------5---7---|-5-7s9------------||
|-----------------|-----------------7---|-7--5-7---7---7-|------------------||
|-----------------|-------------------7-|----------------|------------------||
|-----------------|---------------------|----------------|------------------||
|
|  Q  q  E Q    E   q   E  E  +E  E E E   q  Q   E E E E   Q   E E E E E E
|-----------------|---------------------|----------------|------------------||
|-----------------|---------------------|----------------|------------------||
|-----0-----------|--------0--(0)-------|----------------|------------------||
|--0--0----2----0-|-3---3p=0--(0)-2-----|-0--0-----2-----|-3---3-0---2---0--||
|--0-------0------|-0---0-(0)-(0)-0-0-0-|-0--0---0---0-0-|-0-------0---0----||
|-----------------|---------------------|----------------|------------------||


  (A7)
  E E E E E E E E   E E E E E E Q
|-5---8---5-8p5---|-8---5-8p5---5---|
|---5---8-------8-|---8-------8-----|
|-----------------|-----------------|
|-----------------|-----------------|
|-----------------|-----------------|
|-----------------|-----------------|
|
| q   Q   E E E E   Q   E E E E E E
|-----------------|-----------------|
|-----------------|-----------------|
|-----------------|-----------------|
|-0---0-----2---0-|-3---3-0---2---0-|
|-0---0---0---0---|---------0---0---|
|-----------------|-----------------|


                       ~~~~~~~~~~
   E  E E E     +Q     Q     +Q   E E E E  Q
|--8----5-8b10==(8)r---8---|-(8)--5---5------|
|-----8--------------------|--------8---8s10-|
|--------------------------|-----------------|
|--------------------------|-----------------|
|--------------------------|-----------------|
|--------------------------|-----------------|
|
|  Q    Q        E   E E E    Q   E E E E  Q
|--------------------------|-----------------|
|--------------------------|-----------------|
|--------------------------|-----------------|
|-(0)---0------------2-----|--3---3-0---2--0-|
|--0----0--------0-----0-0-|----------0----0-|
|--------------------------|-----------------|


   ~~~~~~~~~~~~~~~~~~~~~~~~~~~~~~
   Q.     E  +Q    Q     +E   Q.     Q   E E
|------------------8---|-(8)-----------------|
|-10-----10-(10)-------|-----10------8-------|
|----------------------|-----------------9s7-|
|----------------------|---------------------|
|----------------------|---------------------|
|----------------------|---------------------|
|
| +Q   E  E   E  E E E    q      E E E E E E
|----------------------|---------------------|
|----------------------|---------------------|
|---------x------------|-----------x---------|
|-(0)--0--x------2---0-|--3------3-x---2-0-0-|
|-(0)--0------0----0-0-|-------------0---0---|
|----------------------|---------------------|


                           N.C.         (D7)
  ~~~~~~~~~~~~~~~~~~~~~~~~                     ~
  Q.    E +Q    Q     +Q   E E E E Q    E E Q  Q   E E
|-------------------|-----------------|------------------|
|-------------------|-----------------|------------------|
|-5-----5-(5)-------|-----------------|------------------|
|---------------7---|-(7)--5---5---5--|-7------7---9-----|
|-------------------|--------7---7----|---7s9--------9---|
|-------------------|-----------------|------------------|
|
| q   q    E  E E E    q   Q   Q   Q    q   Q  E E E E
|-------------------|-----------------|------------------|
|-------------------|-----------------|------------------|
|-------------------|------2---3---4--|-5---5------------|
|-0---0-------2---0-|--3--------------|-5---5--5-7-------|
|-0---0----0----0---|------2---3---4--|-5---5--5-----5---|
|-------------------|-----------------|------------------|


  ~                                                         ~~~
  Q  E E E Q    E   a  Q   q  E E q     Q.    +E      E E E E
|-----------------|-------------------|-----------------------|
|-----------------|-------------------|-----------------------|
|-----------------|---------------7---|-5-----(5)b5.5---------|
|-7--9---7-9\-----|--------7--7-9-----|---------------7p5---7-|
|------9--------3h|=5s=9--------------|-------------------7---|
|-----------------|-------------------|-----------------------|
|
| q  E E E E  E E      Q   Q  E E E E   q   E  E      E E Q
|-----------------|-------------------|-----------------------|
|-----------------|-------------------|-----------------------|
|-----------------|--------5----5-----|-----------------------|
|-8--8-5---7----5-|---(5)--5--------5-|-8---8--5--------7-----|
|--------5----5---|----5---5--7---5-5-|---------------5-------|
|-----------------|-------------------|-----------------------|


  (A7)
 ~~~~~
  +Q   H.              +Q   +Q     E E E E
|--------------------|----------------------|
|------5-------------|-(5)--(5)-------------|
|------7b9===========|=(7)--(7)r---7p5------|
|-(7)----------------|-----------------7-7--|
|--------------------|----------------------|
|--------------------|----------------------|
|
|  q   q     E E E E    q    E   E E E E E
|--------------------|----------------------|
|--------------------|----------------------|
|--------------------|----------------------|
|--0---0-------2---0-|--3----3---0---2---0--|
|--0---0-----0---0---|-------------0---0----|
|--------------------|----------------------|


  E E E E E E  E E   E  E E E  q    q
|------------------|------8-9-10---10b11--|
|---------8---10---|-8-10-----------------|
|---6s8s9---9----9-|----------------------|
|-7----------------|----------------------|
|------------------|----------------------|
|------------------|----------------------|
|
| Q   q   E E  E E   q    E E  E E  Q
|------------------|----------------------|
|------------------|----------------------|
|------------------|----------------------|
|-0---0-----2----0-|-3----3-0----2--0/----|
|-0---0---0----0---|-----------0----0/----|
|------------------|----------------------|


  (E7)
                                          ~~~~~~~~~~~
   H         E     +E  E  E        +Q    +Q     +Q.       E
|-10b12-----10b12r(10)p8-10b12==|=(10)--(10)---(10)r-----10pb11===|
|-------------------------------|---------------------------------|
|-------------------------------|---------------------------------|
|-------------------------------|---------------------------------|
|-------------------------------|---------------------------------|
|-------------------------------|---------------------------------|
|
|  q     q   E      E  E  E         q     E  E   E   Q.
|-------------------------------|---------------------------------|
|-------------------------------|---------------------------------|
|-------------------------------|--------------------6------------|
|--7-----7----------9-----------|--10----10--7--------------------|
|--7-----7---7------------7-----|----------------7----------------|
|-------------------------------|---------------------------------|


  D5
   E       e  q   q   q     E  +E   Q   E E  q
|-10pb12==10-10--10--10--|-10-(10)rp8--10p8------|
|------------------------|------------------10---|
|------------------------|-----------------------|
|------------------------|-----------------------|
|------------------------|-----------------------|
|------------------------|-----------------------|
|
|  Q          Q   H         H           Q    Q
|------------------------|-----------------------|
|------------------------|-----------------------|
|--5---------------------|-----------------------|
|--5---------------------|-----------------------|
|--5---------------------|------------------12\--|
|------------------------|-----------------------|


  (A7)
   ~~~                                     ~~~
   H.         Q     +Q    q    E E  q      H      E E  E E
|-------------8---|-(8)--10---10p9------|--------------------|
|-10--------------|----------------10---|-10------8---10-----|
|-----------------|---------------------|-----------9----9---|
|-----------------|---------------------|--------------------|
|-----------------|---------------------|--------------------|
|-----------------|---------------------|--------------------|
|
|  Q   Q  E E E E    E E  E E  E E  E E   +Q   q  E E  E E
|-----------------|---------------------|--------------------|
|-----------------|---------------------|--------------------|
|-----------------|-------0-------------|------0---------0---|
|--0---0----2---0-|--3p0--3------2p=0-0-|-(0)--0----2----0---|
|--0---0--0-----0-|---------0--0------0-|-(0)-------0--0-----|
|-----------------|---------------------|--------------------|


                     Interlude
                      A
  E E q   E E  E E     Q  +Q    H      W          W
|------------------||----------------|----------|------||
|-8----------------||----------------|----------|------||
|---9s7---5h6------||----------------|----------|------||
|--------------7---||--7--(7)\-------|----------|------||
|----------------7-||----------------|----------|------||
|------------------||----------------|----------|------||
|
| q   E E E Q.         Q   Q    H      W          W
|------------------||----------------|----------|------||
|-----------0/-----||-12-------------|----------|------||
|-----------0/-----||-12-------------|----------|------||
|-3---3-2---0/-----||-12-------------|----------|------||
|-0---0---0-0/-----||-12-------------|----------|------||
|------------------||----------------|----------|------||


  W          Wx3          H    Q  q
|----------|------------|------------|
|----------|------------|---------5--|
|----------|------------|------------|
|----------|------------|------------|
|----------|------------|------------|
|----------|------------|------------|


            ~~~
  H        +H       E E E E E E    +E  E
|-----------------|-5----------------------|
|-8b10=====(8)----|---8---5----------------|
|-----------------|-----------7pb9r(7)p5---|
|-----------------|------------------------|
|-----------------|------------------------|
|-----------------|------------------------|


                  ~~
  q  H.         E Q.   Q      q
|-------------|------------------|
|-------------|------------------|
|-7--7b9------|-5------5h=====7--|
|-------------|---7--------------|
|-------------|------------------|
|-------------|------------------|
|
| Gtr II
| W             H      Q   a  Q
|-------------|-----------11s12--|
|-------------|------------------|
|-------------|------------------|
|-------------|------------------|
|-------------|------------------|
|-------------|------------------|


      ~~~~~~~~~~
  a   H    +H         W
|------------------|------------------------------|
|------------------|------------------------------|
|-7s==9----(9)\----|------------------------------|
|------------------|------------------------------|
|------------------|------------------------------|
|------------------|------------------------------|
|
|     ~~~
|     W               E  E   E  a  E  E  Q   +E
|---/17------------|-17s15-----12s11-11-----------|
|------------------|-------/11----------12--(12)\-|
|------------------|------------------------------|
|------------------|------------------------------|
|------------------|------------------------------|
|------------------|------------------------------|


                                                                   ~~~
    W                            Q    H.                H       E  Q.
|----------------------------|-------10b11-----------|-10b12----8------|
|----------------------------|-----------------------|------------10---|
|----------------------------|-----------------------|-----------------|
|----------------------------|-----------------------|-----------------|
|----------------------------|-----------------------|-----------------|
|----------------------------|-----------------------|-----------------|
|
|                                ~~~~
|   q   a  q   E  E  E  a  E    +H           E  E Q     W
|----------------------------|-----------------------|-----------------|
|-/12--12s10-----------------|-----------------------|-----------------|
|-------------12s10----10s12-|-(12)---------12s16----|-----------------|
|-------------------12-------|-----------------------|-----------------|
|----------------------------|-----------------------|-----------------|
|----------------------------|-----------------------|-----------------|


   ~~                         ~~~~~~~~~~
   H    Q    Q     H       E  Q.      H     H
|-------8b9-----|-10b12----8-------|--------------------------|
|-10------------|------------10----|-10----10\----------------|
|---------------|------------------|--------------------------|
|---------------|------------------|--------------------------|
|---------------|------------------|--------------------------|
|---------------|------------------|--------------------------|
|
|  W               W                  H     E   E  a  E  a  E
|---------------|------------------|--------------------------|
|---------------|------------------|--------------------------|
|---------------|------------------|--------------10s12-------|
|---------------|------------------|-----------12-------12s10-|
|---------------|------------------|--------------------------|
|---------------|------------------|--------------------------|


  Gtr II
       ~~~~~~~~~~~       ~~~~~~~~~~~~
    E  Q   E  +E  E   E  E    +E   Q  E   Q   Q
|--------------------------|-----------------12--|
|-/12---------------/12----|------------/12------|
|-----12--12-(12)-9-----12-|-(12)-12--9-/12------|
|--------------------------|---------------------|
|--------------------------|---------------------|
|--------------------------|---------------------|


                         3/4
   Q   S  E.  E  E  Q     E E E   E  E  E
|-12--12s10-------------|-----------17s15-||
|------------12s10------|-x---3/-15-------||
|------------------12\--|-x-3-------------||
|-----------------------|-----------------||
|-----------------------|-----------------||
|-----------------------|-----------------||


 Guitar Solo II
  N.C(D7)
 4/4
                                Gtr I
   Q        q      E e E e       E  E E  E     E E  E     E
|--------------------------|--------------------------------|
|-----------7------7-5-----|--------------------------------|
|-----------7------7-5---7-|--------5----------5-5--7-----7-|
|------------------------7-|-------------7------------------|
|----------------------7---|--------------------------------|
|--------------------------|--------------------------------|
|
| Gtr II
|  E  E  a  Q   a  H          a  E  Q    E  a  Q    S  E.
|-------15s17--15s17-------|---------------10s12---12s10----|
|-15s13--------------------|-13s15-13---12------------------|
|--------------------------|--------------------------------|
|--------------------------|--------------------------------|
|--------------------------|--------------------------------|
|--------------------------|--------------------------------|


      q    q        E E  E  E       E   E E  E   E  E   E     E
|-----------------------------|---------------------------------|
|-----------------------------|---------------------------------|
|-------------------7p5-----7-|---------5--------5--5-----------|
|-----7----7-------------7----|--------------7----------7-----7-|
|-----5----5------------------|---------------------------------|
|-----------------------------|---------------------------------|
|
|        ~~~~~~~
|  a  E  Q    E  a  q    E  E    a  E   e E  E  +Q      S  E.
|---------------11s12---------|---------------------------------|
|-10s12---------11s12---------|-------/12-------------/14-13----|
|-------12---12---------12s10-|-10s12-------12-(12)-------------|
|-----------------------------|---------------------------------|
|-----------------------------|---------------------------------|
|-----------------------------|---------------------------------|


  (A7)
   q        q   E  E  E E    E     E E  E     E  E   E   E
|-------------------------|--------------------------------|
|-------------------------|--------------------------------|
|-------------------------|--------------------------------|
|-----------7---7p=5----7-|--------5----------5--5---7---7-|
|--0------------------7---|----------7--7------------------|
|-------------------------|--------------------------------|
|
|                  ~~~
|  E  a  Q.     E  Q.        E  a  Q    E  a  E  E   E   E
|-----9s12-----12-12------|----10s12---12-10s12s10-----/12-|
|-12\---------------------|-12---------------------/12-----|
|-------------------------|--------------------------------|
|-------------------------|--------------------------------|
|-------------------------|--------------------------------|
|-------------------------|--------------------------------|


    q          q       E   E E  E    E  E     E E     E E  q
|---------------------------------|-------------------------------|
|---------------------------------|-------------------------------|
|---------------------------------|-------------------------------|
|--------------7-------7p==5----7-|-----5-------------5-5---------|
|---0------------------------7----|-------------7----------5------|
|---------------------------------|-------------------------------|
|
|  +E   E   a  S  E.   E   Q    E    E  E  a  Q    a  Q    E  E
|-(12)-----10s12s10------------17s|=15----15s17---15s17---17s15---|
|------12\-----------/12-/15------|----15-------------------------|
|---------------------------------|-------------------------------|
|---------------------------------|-------------------------------|
|---------------------------------|-------------------------------|
|---------------------------------|-------------------------------|


  (E7)
   q       q         E     E     E  E    E   E  E E   Q     q
|-------------------------------------|--------------------------|
|-------------------------------------|--------------------------|
|----------9---------9p====7--------9-|------7--------7-----9----|
|--------------------------------9----|-----------9--------------|
|--7----------------------------------|--------------------------|
|-------------------------------------|--------------------------|
|
|  E  a  Q    a  E  +S   E    S  Q       E   Q.      +Q    +Q
|----15s17---15s17-(17)s15------------|--------------------------|
|-15-------------------------15-------|-12-/15------(15)--(15)\--|
|-------------------------------16\---|--------------------------|
|-------------------------------------|--------------------------|
|-------------------------------------|--------------------------|
|-------------------------------------|--------------------------|


  (D5)
      E Q            E   Q          E E     E  Q      E   Q.        E
|---------------------------------------|-------------------------------|
|---------------------------------------|-------------------------------|
|-------5b5.5------------5b5.5--------5-|------5b5.5------5b5.5---------|
|--------------------7--------------7---|-------------7-----------------|
|---------------------------------------|-------------------------------|
|---------------------------------------|-------------------------------|
|
|  a  Q        a  E  E  +E      E   Q      +H            +Q       Q
|---------------------------------------|-------------------------------|
|---------------------------------------|-------------------------------|
|-12s10-------------10-(10)-------\10---|-(10)----------(10)s====11-----|
|-------------12s13------------13-------|-------------------------------|
|---------------------------------------|-------------------------------|
|---------------------------------------|-------------------------------|


  (A7)
   Q   q   E  E  E  E   E     E E  E  E E  E E
|---------------------|------------------------|
|---------------------|------------------------|
|---------------------|------------------------|
|------7---7p=5-----7-|-------5-------5-5--7-7-|
|----------------7----|------------7-----------|
|---------------------|------------------------|
|
|  Q   Q   E  E  E  E   E  a  E E  E  Q    Q
|---------------------|------------------------|
|---------------------|------------------------|
|-----12--12s10----12-|---12s10------14s==16---|
|---------------12----|-----------12-----------|
|-12------------------|------------------------|
|---------------------|------------------------|


    q   q      E  E  E   E     E  E E E  E E  E E
|--------------------------|-----------------------||
|--------------------------|-----------------------||
|--------------------------|-----------------------||
|-------7------7p=5------7-|------5------5-5-------||
|---0----------------7-----|----------7-------7-7--||
|--------------------------|-----------------------||
|
|   ~~~~
|   H       a  E  E  E   E    +H         Q    Q
|--17------15s17s15----/19-|-(19)s======20s==21----||
|-------------------15-----|-----------------------||
|-(16)---------------------|-----------------------||
|--------------------------|-----------------------||
|--------------------------|-----------------------||
|--------------------------|-----------------------||


 3rd Verse
  N.(A7)
  q  q   E  E  E  E   E     E E  E  E E  E  E
|-------------------|-------------------------|
|-------------------|-------------------------|
|-------------------|-------------------------|
|----7---7p=5-----7-|-------5-------5-5--7--7-|
|-0------------7----|------------7------------|
|-------------------|-------------------------|
|
| H      E  E  E  E   E  a  E E  E  Q    E  E
|-------------------|-------------------------|
|-------------------|-------------------------|
|-------12s10----12-|---12s10------10---12s10-|
|-------------12----|-----------12------------|
|-------------------|-------------------------|
|-------------------|-------------------------|


   q   q   E  E  E  E     E  E E E E E E  E
|---------------------|----------------------|
|---------------------|----------------------|
|---------------------|----------------------|
|------7---7p=5-----7-|------5-----5-5-------|
|--0-------------7----|----------7-----7--7--|
|---------------------|----------------------|
|
|                   ~~~~~~~~~
|  q   q   E  E  E  E    +H.           E  E
|---------------------|----------------------|
|---------------------|------------------11s=|
|-----12--12s10----12-|-(12)-------------11s=|
|---------------12----|----------------------|
|-12------------------|----------------------|
|---------------------|----------------------|


   q  q   E  E  E  E   E  E E  E     E E  E  E
|--------------------|-------------------------|
|--------------------|-------------------------|
|--------------------|-------------------------|
|-----7---7p=5-----7-|----5----------5-5--7--7-|
|--0------------7----|---------7---------------|
|--------------------|-------------------------|
|
|  Q  Q   E  E  E  E   E  E E  E  a  Q    E  E
|--------------------|-------------------------|
|-12-----------------|-------------------------|
|-12-----12s10----12-|---10------12s10---12s10-|
|--------------12----|--------12---------------|
|--------------------|-------------------------|
|--------------------|-------------------------|


   q   q   E  E  E  E     E  E E E E E  E E
|---------------------|---------------------|
|---------------------|---------------------|
|---------------------|---------------------|
|------7---7p=5-----7-|------5-----5-5------|
|--0-------------7----|----------7------7-7-|
|---------------------|---------------------|
|
|                   ~~~~~~~~~
|  q   q   E  E  E  E    +H.            q
|---------------------|---------------------|
|---------------------|---------------------|
|-----12--12s10----12-|-(12)----------------|
|---------------12----|----------------12---|
|-12------------------|---------------------|
|---------------------|---------------------|


  (D7)
  q   q   E  E  E  E   E     E E  E  E E  E  E
|--------------------|-------------------------|
|--------------------|-------------------------|
|-----7---7p=5-----7-|-------5-------5-5--7--7-|
|---------------7----|------------7------------|
|-5------------------|-------------------------|
|--------------------|-------------------------|
|
| Q   q   E  E  E  E   E  a  E E  E  Q    E  E
|--------------------|-------------------------|
|--------------------|-------------------------|
|----12--12s10----12-|---12s10------10---12s10-|
|--------------12----|-----------12------------|
|--------------------|-------------------------|
|--------------------|-------------------------|


   q   q   E  E  E  E     E  E E  E     E E Q
|---------------------|-----------------------|
|---------------------|-----------------------|
|------7---7p=5-----7-|------5----------5-5-7-|
|----------------7----|-----------7-----------|
|--5------------------|-----------------------|
|---------------------|-----------------------|
|
|                   ~~~~~~~~~
|  q   q   E  E  E  E    +Q    E  E  a  Q   q
|---------------------|-----------------------|
|---------------------|-----------------------|
|-----12--12s10----12-|-(12)------------------|
|---------------12----|-------------12s10s==9-|
|-12------------------|----------10-----------|
|---------------------|-----------------------|


  A7
   q   q   E  E  E  E   E  E E  E     E E  E  E
|---------------------|-------------------------|
|---------------------|-------------------------|
|---------------------|-------------------------|
|------7---7p=5-----7-|----5----------5-5--7--7-|
|--0-------------7----|---------7---------------|
|---------------------|-------------------------|
|
|  q   q   E  E  E  E   E  E E  E  a  Q    E  E
|---------------------|-------------------------|
|---------------------|-------------------------|
|-----12--12s10----12-|---10------12s10---12s10-|
|---------------12----|--------12---------------|
|-12------------------|-------------------------|
|---------------------|-------------------------|


   q   q   E  E  E  E     E  E E  E     E E     q
|---------------------|----------------------------|
|---------------------|----------------------------|
|---------------------|----------------------------|
|------7---7p=5-----7-|------5----------5-5--------|
|--0-------------7----|-----------7-------------5--|
|---------------------|----------------------------|
|
|                   ~~~~~~~~~
|  q   q   E  E  E  E    +Q.      E  a  Q    a  Q
|---------------------|----------------------------|
|---------------------|-------------10s12----------|
|-----12--12s10----12-|-(12)----------------12s10--|
|---------------12----|----------12----------------|
|-12------------------|----------------------------|
|---------------------|----------------------------|


  (E7)                                           D5
   q   q   E  E  E  E   E     E E  E  E E  Q     Q  Q  H      W
|---------------------|------------------------|------------|-------------|
|---------------------|------------------------|------------|-------------|
|------9---9p=7-----9-|-------7-------7-7--9---|-7----------|-------------|
|----------------9----|------------9-----------|-7----------|-------------|
|--7------------------|------------------------|-5----------|-------------|
|---------------------|------------------------|------------|-------------|
|
|  q   q   E  E  E  E   E  a  E E  E  Q    Q     Q  Q  H      H    E Q.
|---------------------|------------------------|------------|-------------|
|---------------------|------------------------|------------|-------------|
|-----12--12s10----12-|---12s10------10---12\--|-5----------|-------------|
|---------------12----|-----------12-----------|-5----------|-------------|
|-12------------------|------------------------|-5----------|-------------|
|---------------------|------------------------|------------|--------0/---|


  N.A7
  q   Q   E  E  E  E   E     E E  E     E E  E  E
|--------------------|----------------------------|
|--------------------|----------------------------|
|--------------------|----------------------------|
|-----7---7p=5-----7-|-------5----------5-5--7--7-|
|-0-------------7----|------------7---------------|
|--------------------|----------------------------|
|
| q   q   E  E  E  E   E  a  E E  E  a  Q    Q
|--------------------|----------------------------|
|--------------------|----------------------------|
|----12--12s10----12-|---12s10------12s10---12\---|
|--------------12----|-----------12---------------|
|--------------------|----------------------------|
|-x------------------|----------------------------|


   q   q   E  E  E  E     E  E E  E     E E  Q
|---------------------|--------------------------|
|---------------------|--------------------------|
|---------------------|--------------------------|
|------7---7p=5-----7-|------5----------5-5------|
|--0-------------7----|-----------7----------5---|
|---------------------|--------------------------|
|
|                   ~~~~~~~~~
|  q   q   E  E  E  E    +Q.      E  a  q    Q
|---------------------|--------------------------|
|---------------------|-------------10s12--------|
|-----12--12s10----12-|-(12)----------------12\--|
|---------------12----|----------12--------------|
|-12------------------|--------------------------|
|---------------------|--------------------------|


  (E7)                                               D5
    q   q   E  E  E  E   E     E E  E     E E  Q     Q  Q  H      W
|----------------------|---------------------------|------------|------------|
|----------------------|---------------------------|------------|------------|
|-------9---9p=7-----9-|-------7----------7-7--9---|-7----------|------------|
|-----------------9----|------------9--------------|-7----------|------------|
|---7------------------|---------------------------|-5----------|------------|
|----------------------|---------------------------|------------|------------|
|
|   q   q   E  E  E  E   E  a  E E  E  a  Q    Q     Q  Q  H      H    E Q.
|----------------------|---------------------------|------------|------------|
|----------------------|---------------------------|------------|------------|
|------12--12s10----12-|---12s10------12s10---12\--|-5----------|------------|
|----------------12----|-----------12--------------|-5----------|------------|
|-/12------------------|---------------------------|-5----------|------------|
|----------------------|---------------------------|------------|--------0/--|


  N.(A7)
  q   Q   E  E  E  E   E     E E  E     E E  E  E
|--------------------|----------------------------|
|--------------------|----------------------------|
|--------------------|----------------------------|
|-----7---7p=5-----7-|-------5----------5-5--7--7-|
|-0-------------7----|------------7---------------|
|--------------------|----------------------------|
|
| q   q   E  E  E  E   E  a  E E  E  a  Q    Q
|--------------------|----------------------------|
|--------------------|----------------------------|
|----12--12s10----12-|---12s10------12s10---12\---|
|--------------12----|-----------12---------------|
|--------------------|----------------------------|
|-x------------------|----------------------------|


   q   q   E  E  E  E     E  E E E   E   E     Q
|---------------------|---------------------------|
|---------------------|---------------------------|
|---------------------|---------------------------|
|------7---7p=5-----7-|------5-------5---5--------|
|--0-------------7----|----------7-------------5--|
|---------------------|---------------------------|
|
|                   ~~~~~~~~~~~~~~~~~~~~
|  q   q   E  E  E  E    +H         +E   E  a  Q
|---------------------|---------------------------|
|---------------------|--------------------10s12--|
|-----12--12s10----12-|-(12)-------(12)-----------|
|---------------12----|-----------------12--------|
|-12------------------|---------------------------|
|---------------------|---------------------------|


                                                 Free Time Q=69
  (E7)                                             D5
                                                  4/4
                                                   Gtr I
  W                    W                           Q   Q  H
                                                   |
                                                   /

  q   q   E  E  E  E   E     E E  E     E E  Q     W
|--------------------|---------------------------|-------------|
|--------------------|---------------------------|-------------|
|-----9---9p=7-----9-|-------7----------7-7--9---|-------------|
|---------------9----|------------9--------------|-------------|
|-7------------------|---------------------------|-------------|
|--------------------|---------------------------|-------------|
|
| Q   q   E  E  E  E   E  a  E E  E  a  Q    Q     Q   H     Q
|--------------------|---------------------------|-------------|
|--------------------|---------------------------|-------------|
|----12--12s10----12-|---12s10------12s10---12\--|-5\----------|
|--------------12----|-----------12--------------|-5\----------|
|--------------------|---------------------------|-5\----------|
|--------------------|---------------------------|-------------|


  N.C.
  Gtr III
  W          W
|----------|------|
|----------|------|
|----------|------|
|----------|------|
|----------|------|
|----------|------|


                      In Time Q.=66
                       9/8
  W          W          W
|----------|----------|------|
|----------|----------|------|
|----------|----------|------|
|----------|----------|------|
|----------|----------|------|
|----------|----------|------|


  A5           A7            D             N.C.(D#°7)(A7)    A°7  A7
 12/8
  Gtr I
  Q.            E E     E     E E E     Q.            Q   E    Q    E  +H.
|--------------------------------------------------|--------------------------|
|---------------8-------8-----7-7------------------|-----------7----8--(8)----|
|-9---------------9---------------7----------------|-----------5----6--(6)----|
|-7-------------7-------------7--------------------|----------------7--(7)----|
|---------------------------------------6----------|--7\----------------------|
|--------------------------------------------------|--------------------------|
|
| Gtr II
|                                                                   ~~~~~~~
| E    E  E  a  Q    a  E  a  Q   E  a  E   E    E    Q   E    Q    E  +H.
|--------17-15s17---15s17-15s17---x-11s10------/12-|--------------/12-(12)----|
|----/15-----------------------------------12\-----|--------------/12-(12)----|
|-3------------------------------------------------|-12\--3/-/12--/12-(12)----|
|--------------------------------------------------|------3/------------------|
|--------------------------------------------------|--------------------------|
|--------------------------------------------------|--------------------------|


  N.C.
 4/4
            ~~~~~~~                        ~
    S S  a  S  +Q          E       a E a S Q     +Q    Q  H
|-----5---------------------------------------:---------------*|
|--------8s10-(10)----------------------------:---------------*|
|----------------------------------5h6-5h6----:---------------*|
|------------------------------------------7--:--(7)\---------*|
|---------------------------------------------:---------------*|
|---------------------------------------------:---------------*|
|
|                                ~~
|   E    a  S   S   E    e    a  H                Q    Q  H
|---------------------------------------------:---------------*|
|-/12s==10s13s=10-----------------------------:---------------*|
|----------------------/12---12s10------------:-(10)\---------*|
|------------------12\------------------------:--10\----------*|
|---------------------------------------------:---------------*|
|---------------------------------------------:---------------*|


Duration Legend
---------------
W - whole; H - half; Q - quarter; E - 8th; S - 16th; T - 32nd; X - 64th; a - acciaccatura
+ - note tied to previous; . - note dotted; .. - note double dotted
Uncapitalized letters represent notes that are staccato (1/2 duration)
Irregular groupings are notated above the duration line
Duration letters will always appear directly above the note/fret number it represents the
duration for.  Duration letters with no fret number below them represent rests.  Multi-
bar rests are notated in the form Wxn, where n is the number of bars to rest for.  Low
melody durations appear below the staff

Tablature Legend
----------------
 h   - hammer-on
 p   - pull-off
 b   - bend
 pb  - pre-bend
 r   - bend release (if no number after the r, then release immediately)
 /\  - slide into or out of (from/to "nowhere")
 s   - legato slide
 S   - shift slide
<n>  - natural harmonic
[n]  - artificial harmonic
n(n) - tapped harmonic
 ~   - vibrato
 tr  - trill
 T   - tap
 TP  - trem. picking
 PM  - palm muting
\n/  - tremolo bar dip; n = amount to dip
 \n  - tremolo bar down
 n/  - tremolo bar up
/n\  - tremolo bar inverted dip
 =   - hold bend; also acts as connecting device for hammers/pulls
 <>  - volume swell (louder/softer)
 x   - on rhythm slash represents muted slash
 o   - on rhythm slash represents single note slash

Misc Legend
-----------
 |  - bar
||  - double bar
||o - repeat start
o|| - repeat end
*|  - double bar (ending)
 :  - bar (freetime)
 $  - Segno
 &  - Coda
comments
print report bad tab
I want to post or [tab]
guest
You may want to rate the tab now too:
select rating
Please do not post tabs as comments. Select "correction" instead!