Oops, an error
Loading. Please wait.

Fruity Lexia Tab

ver1
ver1

Whole song

Interactive

More versions @911Tabs.com
4,492 views 1 this week
2 commentsread comments
1 2 3 4 5
worth learning
x 2
add to favorites launch autoscroll
font size
0
reset
Autoscroll
+/-
esc
set tempo
stop
Contributor
Difficulty
Tuning
novice
D A D G B E
WARNING: You are trying to view
                                    content from Ultimate-Guitar.com
                                    in an unauthorized application,
                                    which is prohibited.

                                    Please use an official Ultimate
                                    Guitar Tabs application for iPhone,
                                    iPad or Android to access legitimate
                                    chords, guitar, bass, and drum tabs
                                    from Ultimate-Guitar.com database.

                                    Type "ultimate guitar tabs" in Apple
                                    App Store's or Android Market's
                                    search to find the application.
tabbed by sam and jordan :)
if you have any questions email me at jorda_dabest01@hotmail.com

this song should be in drop C but i couldnt be screwed
some of the chords may be a bit high but Guitar 1 is fine

two guitars:
Guitar 1
Guitar 2

Guitar 1:intro
E|----------------------------------------------------|
B|----------------------------------------------------|
G|-------10-------8-------10-------6h8----------------|
D|---8-8----8-8-8---8-8-8----8-8-8--------------------|
A|----------------------------------------------------|
D|----------------------------------------------------|

E|----------------------------------------------------|
B|----------------------------------------------------|
G|-------10-------8----5-5-5-6-6-6-5-5----------------|
D|---8-8----8-8-8---8---------------------------------|
A|----------------------------------------------------|
D|----------------------------------------------------|


E|----------------------------------------------------| 
B|----------------------------------------------------|
G|---10-10-10-10-10-10-10-10-6-6-6-6-6-6-6-6----------|
D|----------------------------------------------------| 
A|---8--8--8--8--8--8--8--8--4-4-4-4-4-4-4-4----------|
D|----------------------------------------------------|


E|----------------------------------------------------| 
B|----------------------------------------------------|
G|---5-5-5-6-6-6-13-13-13-13-13-15-15-15--------------|
D|----------------------------------------------------| 
A|---3-3-3-4-4-4-11-11-11-11-11-13-13-13--------------|
D|----------------------------------------------------|

E|----------------------------------------------------|
B|----------------------------------------------------|
G|-------10-------8-------10-------6h8----------------|
D|---8-8----8-8-8---8-8-8----8-8-8--------------------|
A|----------------------------------------------------|
D|----------------------------------------------------|

E|----------------------------------------------------|
B|----------------------------------------------------|
G|-------10-------8----5-5-5-6-6-6-5-5----------------|
D|---8-8----8-8-8---8---------------------------------|
A|----------------------------------------------------|
D|----------------------------------------------------|

E|----------------------------------------------------| 
B|----------------------------------------------------|
G|---11-11-11-10-10-10-6-6-6-5-5-5-5-5----------------|
D|----------------------------------------------------|
A|---9--9--9--8--8--8--4-4-4-3-3-3-3-3----------------|
D|----------------------------------------------------|

E|----------------------------------------------------| 
B|----------------------------------------------------|
G|---11-11-11-10-10-10-13-13-13-13-13-15-15-15--------|
D|----------------------------------------------------| 
A|---9--9--9--8--8--8--11-11-11-11-11-13-13-13--------|
D|----------------------------------------------------|

E|----------------------------------------------------|
B|----------------------------------------------------|
G|-------10-------8-------10-------6h8----------------|
D|---8-8----8-8-8---8-8-8----8-8-8--------------------|
A|----------------------------------------------------|
D|----------------------------------------------------|

E|----------------------------------------------------|
B|----------------------------------------------------|
G|-------10-------8----5-5-5-6-6-6-5-5----------------|
D|---8-8----8-8-8---8---------------------------------|
A|----------------------------------------------------|
D|----------------------------------------------------|

E|----------------------------------------------------| 
B|----------------------------------------------------|
G|---11-11-11-10-10-10-6-6-6-5-5-5-5-5----------------|
D|----------------------------------------------------|
A|---9--9--9--8--8--8--4-4-4-3-3-3-3-3----------------|
D|----------------------------------------------------|

E|----------------------------------------------------| 
B|----------------------------------------------------|
G|---11-11-11-10-10-10-13-13-13-13-13-15-15-15--------|
D|----------------------------------------------------| 
A|---9--9--9--8--8--8--11-11-11-11-11-13-13-13--------|
D|----------------------------------------------------|

Guitar 2:intro

E|--------------| 
B|--------------|
G|--------------|
D|--8-8-8-8-----| X8
A|--8-8-8-8-----|
D|--8-8-8-8-----|

E|----------------------------------------------------| 
B|----------------------------------------------------|
G|-4-4-4-4------6-6-6-6-------------------------------|
D|-4-4-4-4-x4---6-6-6-6-x4----------------------------| 
A|-4-4-4-4------6-6-6-6-------------------------------|

E|--------------| 
B|--------------|
G|--------------|
D|--8-8-8-8-----| X6
A|--8-8-8-8-----|
D|--8-8-8-8-----|

E|----------------------------------------------------| 
B|----------------------------------------------------|
G|----------------------------------------------------|
D|-11-11-11-11------4-4-4-4------6-6-6-6--------------| 
A|-11-11-11-11-X2---4-4-4-4--X4--6-6-6-6-X4-----------|
D|-11-11-11-11------4-4-4-4------6-6-6-6--------------| x2


Verse- Guitars 1+2

E|-----------------------------------------------------------------| 
B|-----------------------------------------------------------------|
G|-----------------------------------------------------------------|
D|-8-8-8-8-8---8-8-8-8-8----8-8-8-8---4-4-4-4-4--4-4-4-4-4--4-4-4-4| 
A|-8-8-8-8-8---8-8-8-8-8----8-8-8-8---4-4-4-4-4--4-4-4-4-4--4-4-4-4|
D|-8-8-8-8-8---8-8-8-8-8----8-8-8-8---4-4-4-4-4--4-4-4-4-4--4-4-4-4|

E|---------------------------------------------------------------------| 
B|---------------------------------------------------------------------|
G|---------------------------------------------------------------------|
D|-8-8-8-8-8---8-8-8-8-8----8-8-8-8--6-6-6-6-6-6-6-6----4-4-4-4-4-4-4-4|
A|-8-8-8-8-8---8-8-8-8-8----8-8-8-8--6-6-6-6-6-6-6-6----4-4-4-4-4-4-4-4|
D|-8-8-8-8-8---8-8-8-8-8----8-8-8-8--6-6-6-6-6-6-6-6----4-4-4-4-4-4-4-4|

                            verse X 2

chorus- Guitars 1+2
E|----------------------------------------------------| 
B|----------------------------------------------------|
G|----------------------------------------------------|
D|---4-4-4-4------8-8-8-8------3-3-3-3----------------| 
A|---4-4-4-4--x4--8-8-8-8--x2--3-3-3-3--x2------------|
D|---4-4-4-4------8-8-8-8------3-3-3-3----------------|

E|----------------------------------------------------| 
B|----------------------------------------------------|
G|----------------------------------------------------|
D|---4-4-4-4------8-8-8-8------11-11-11-11------------| 
A|---4-4-4-4--x4--8-8-8-8--x2--11-11-11-11--x2--------|
D|---4-4-4-4------8-8-8-8------11-11-11-11------------|

E|----------------------------------------------------| 
B|----------------------------------------------------|
G|----------------------------------------------------|
D|---4-4-4-4------8-8-8-8------3-3-3-3----------------| 
A|---4-4-4-4--x4--8-8-8-8--x2--3-3-3-3--x2------------|
D|---4-4-4-4------8-8-8-8------3-3-3-3----------------|

E|----------------------------------------------------| 
B|----------------------------------------------------|
G|----------------------------------------------------|
D|---4-4-4-4------3-3-3-3------6-6-6-6----------------| 
A|---4-4-4-4--x4--3-3-3-3--x2--6-6-6-6--x2------------|
D|---4-4-4-4------3-3-3-3------6-6-6-6----------------|

breakdown
Guitar 1
E|----------------------------------------------------|
B|----------------------------------------------------|
G|-------10-------8-------10-------6h8----------------|
D|---8-8----8-8-8---8-8-8----8-8-8--------------------|
A|----------------------------------------------------|
D|----------------------------------------------------|

E|----------------------------------------------------|
B|----------------------------------------------------|
G|-------10-------8-----5---5---5---5-----------------|
D|---8-8----8-8-8---8---------------------------------|
A|----------------------------------------------------|
D|----------------------------------------------------|

Guitar 2
E|----------------------------------------------------| 
B|----------------------------------------------------|
G|----------------------------------------------------|
D|---8------------------------------------------------| 
A|---8------------------------------------------------|
D|---8------------------------------------------------|

E|----------------------------------------------------| 
B|----------------------------------------------------|
G|----------------------------------------------------|
D|----------------------6---6---6---6-----------------| 
A|----------------------6---6---6---6-----------------|
D|----------------------6---6---6---6-----------------|

Guitar 1+2
E|----------------------------------------------------| 
B|----------------------------------------------------|
G|----------------------------------------------------|
D|---8-8---8-8---88888888-8-8--11-11--11111111111111--| 
A|---8-8---8-8---88888888-8-8--11-11--11111111111111--|
D|---8-8---8-8---88888888-8-8--11-11--11111111111111--|

E|----------------------------------------------------| 
B|----------------------------------------------------|
G|----------------------------------------------------|
D|---4-4---4-4---44444444-3-3---6-6---66666666666666--| 
A|---4-4---4-4---44444444-3-3---6-6---66666666666666--|
D|---4-4---4-4---44444444-3-3---6-6---66666666666666--| x2


VERSE

CHORUS


E|----------------------------------------------------| 
B|----------------------------------------------------|
G|----------------------------------------------------|
D|----------------------------------------------------| 
A|----------------------------------------------------|
D|----------------------------------------------------|

outro
E|----------------------------------------------------| 
B|----------------------------------------------------|
G|----------------------------------------------------|
D|---4-4-4-4-4-4-4-4-6-6-6-6-6-6-6-6------------------| 
A|---4-4-4-4-4-4-4-4-6-6-6-6-6-6-6-6------------------|
D|---4-4-4-4-4-4-4-4-6-6-6-6-6-6-6-6------------------|
   PM...............................

E|----------------------------------------------------| 
B|----------------------------------------------------|
G|----------------------------------------------------|
D|---8-8-8-8-8-8-8-8-11-11-11-11-11-11-11-11----------| 
A|---8-8-8-8-8-8-8-8-11-11-11-11-11-11-11-11----------|
D|---8-8-8-8-8-8-8-8-11-11-11-11-11-11-11-11----------|     x2
   PM.......................................
                        
E|----------------------------------------------------| 
B|----------------------------------------------------|
G|----------------------------------------------------|
D|---4-4-4-4-4-4-4-4-6-6-6-6-6-6-6-6------------------| 
A|---4-4-4-4-4-4-4-4-6-6-6-6-6-6-6-6------------------|
D|---4-4-4-4-4-4-4-4-6-6-6-6-6-6-6-6------------------|
   PM...............................

E|----------------------------------------------------| 
B|----------------------------------------------------|
G|----------------------------------------------------|
D|---1-1-1-1-1-1-1-1-1-1-1-1-1-1-1-1------------------| 
A|---1-1-1-1-1-1-1-1-1-1-1-1-1-1-1-1------------------|
D|---1-1-1-1-1-1-1-1-1-1-1-1-1-1-1-1------------------|
   PM...............................

E|----------------------------------------------------| 
B|----------------------------------------------------|
G|----------------------------------------------------|
D|---4-4-4-4-4-4-4-4-6-6-6-6-6-6-6-6------------------| 
A|---4-4-4-4-4-4-4-4-6-6-6-6-6-6-6-6------------------|
D|---4-4-4-4-4-4-4-4-6-6-6-6-6-6-6-6------------------|
   PM...............

E|----------------------------------------------------| 
B|----------------------------------------------------|
G|----------------------------------------------------|
D|---1-1-1-1-1-1-1-1-1-1-1-1-1-1-1-1------------------| 
A|---1-1-1-1-1-1-1-1-1-1-1-1-1-1-1-1------------------|
D|---1-1-1-1-1-1-1-1-1-1-1-1-1-1-1-1------------------|
  
E|----------------------------------------------------| 
B|----------------------------------------------------|
G|----------------------------------------------------|
D|---4-----------6-6----------1--------------11-11----| 
A|---4-----------6-6----------1--------------11-11----|
D|---4-----------6-6----------1--------------11-11----| x2

E|----------------------------------------------------| 
B|----------------------------------------------------|
G|----------------------------------------------------|
D|---4-4-4-4-4---6-6-6-6-6---6-6-6-6------------------| 
A|---4-4-4-4-4---6-6-6-6-6---6-6-6-6------------------|
D|---4-4-4-4-4---6-6-6-6-6---6-6-6-6------------------|

E|----------------------------------------------------| 
B|----------------------------------------------------|
G|----------------------------------------------------|
D|---1-1-1-1-1---1-1-1-1-1---1-1-1-1------------------| 
A|---1-1-1-1-1---1-1-1-1-1---1-1-1-1------------------|
D|---1-1-1-1-1---1-1-1-1-1---1-1-1-1------------------|

E|----------------------------------------------------| 
B|----------------------------------------------------|
G|----------------------------------------------------|
D|---4-4-4-4-4---6-6-6-6-6---6-6-6-6------------------| 
A|---4-4-4-4-4---6-6-6-6-6---6-6-6-6------------------|
D|---4-4-4-4-4---6-6-6-6-6---6-6-6-6------------------|

E|----------------------------------------------------| 
B|----------------------------------------------------|
G|----------------------------------------------------|
D|---1-1-1-1-1---1-1-1-1-1---1-3--4-------------------| 
A|---1-1-1-1-1---1-1-1-1-1---1-3--4-------------------|
D|---1-1-1-1-1---1-1-1-1-1---1-3--4-------------------|
comments
We did not receive enough feedback on this tab! Please rate:
print report bad tab
1 2 3 4 5
2 comments total.
0 reply
Disturbed_EMG wrote on May 25 2010, 09:06 pm

Amity play in C# They always have.

0 reply
Zak murray wrote on August 1 2011, 10:11 pm

wheres the fill towards the end?

I want to post or [tab]
guest
You may want to rate the tab now too:
select rating
Please do not post tabs as comments. Select "correction" instead!