Oops, an error
Loading. Please wait.

Youngbloods Tab

ver1
ver1

Intro

Whole song

Interactive

More versions @911Tabs.com
7,185 views 36 this week
no commentswrite comment
1 2 3 4 5
accurate
x 3
Autoscroll
+/-
esc
set tempo
stop
Contributor
Hey! There's an official Ultimate Guitar app which is ideal
for learning songs when you're away from computer. Get the app
WARNING: You are trying to view
                                    content from Ultimate-Guitar.com
                                    in an unauthorized application,
                                    which is prohibited.

                                    Please use an official Ultimate
                                    Guitar Tabs application for iPhone,
                                    iPad or Android to access legitimate
                                    chords, guitar, bass, and drum tabs
                                    from Ultimate-Guitar.com database.

                                    Type "ultimate guitar tabs" in Apple
                                    App Store's or Android Market's
                                    search to find the application.
---------------------------------------------------------------------------
                 The Amity Affliction - Youngbloods
---------------------------------------------------------------------------

Tabbed by: CobjayGuitar(www.youtube.com/user/cobjayguitar)

Tuning: Drop C# [C#,G#,C#,F#,A#,D#]

CHECK OUT MY COVER USING THIS TAB: http://www.youtube.com/watch?v=1fxS38bQevM&feature=plcp

Intro
Guitar 1.
D#|-------15-------------------------15--17-15-12--------------|
A#|-12-13-----12-13--12-13-----12-13---------------12-13----15-|
F#|------------------------14-----------------------------14---|
C#|------------------------------------------------------------|
G#|------------------------------------------------------------|
C#|------------------------------------------------------------|

Guitar 2.
D#|------------------------------------------------------------|
A#|------------------------------------------------------------|
F#|------------------------------------------------------------|
C#|-777---555--333---555--777---101010--333--5-----------------|
G#|-777---555--333---555--777---101010--333--5-----------------|
C#|-777---555--333---555--777---101010--333--5-----------------|
          ...        ...        . . .


Verse 1.

D#|------------------------------------------------------------|
A#|------------------------------------------------------------|
F#|------------------------------------------------------------|
C#|-77777777-7-7-7---777777-10-10-3---33-3-33-3-33-3-33-3------|
G#|-77777777-7-7-7---777777-10-10-3---33-3-33-3-33-3-33-3------|
C#|-77777777-7-7-7---777777-10-10-3---33-3-33-3-33-3-33-3------|
    ........         ......           ..   ..   ..   ..
D#|------------------------------------------------------------|
A#|------------------------------------------------------------|
F#|------------------------------------------------------------|
C#|------------------------------------------------------------|
G#|-55555555-5-5-5-7-------------------------------------------|
C#|-55555555-5-5-5-7-------------------------------------------|

D#|------------------------------------------------------------|
A#|------------------------------------------------------------|
F#|------------------------------------------------------------|
C#|-77777777-7-7-7---777777-10-10-3---33-3-33-3-33-3-33-3------|
G#|-77777777-7-7-7---777777-10-10-3---33-3-33-3-33-3-33-3------|
C#|-77777777-7-7-7---777777-10-10-3---33-3-33-3-33-3-33-3------|
    ........         ......           ..   ..   ..   ..

D#|------------------------------------------------------------|
A#|------------------------------------------------------------|
F#|------------------------------------------------------------|
C#|-5-5-5-5-5-5-5----------------------------------------------|
G#|-5-5-5-5-5-5-5--00-0-0-0000--00-0-0-0000-77777777-5555------|
C#|-5-5-5-5-5-5-5--00-0-0-0000--00-0-0-0000-77777777-5555------|
                   .. . . ....  .. . . ....
D#|------------------------------------------------------------|
A#|------------------------------------------------------------|
F#|-12-12-12-12------------------------------------------------|
C#|--x--x--x--x------------------------------------------------|
G#|-10-10-10-10 --00-0-0-0000--00-0-0-0000-77777777-55555555---|
C#|---------------00-0-0-0000--00-0-0-0000-77777777-55555555---|
                  .. . . ....  .. . . ....


D#|------------------------------------------------------------|
A#|------------------------------------------------------------|
F#|------------------------------------------------------------|
C#|-3~----3-3-3-3-3--------------------------------------------|
G#|-3~----3-3-3-3-3--------------------------------------------|
C#|-3~----3-3-3-3-3--------------------------------------------|
          . . . . .

Chorus
Guitar 1.

D#|--15--------------15-17-15----------15-----------------------|
A#|----13-12-13---------------17-15-------13-12----12-----------|
F#|-------------14------------------------------14----12--------|
C#|-------------------------------------------------------------|
G#|-------------------------------------------------------------|
C#|-------------------------------------------------------------|

D#|--15--------------15-17-15-------------15--------------------|
A#|----13-12-13---------------17-15----17-----------------------|
F#|-------------14----------------------------------------------|
C#|-------------------------------------------------------------|
G#|-------------------------------------------------------------|
C#|-------------------------------------------------------------|

D#|--15--------------15-17-15-----------------------------------|
A#|----13-12-13---------------17-15------15-13-12----12---------|
F#|-------------14-------------------------------14----12-------|
C#|-------------------------------------------------------------|
G#|-------------------------------------------------------------|
C#|-------------------------------------------------------------|

Guitar 2
D#|-------------------------------------------------------------|
A#|-------------------------------------------------------------|
F#|-------------------------------------------------------------|
C#|-333333-33-3-3-3-7-7-7----555555-55-5-5-5-7-7-7--------------|
G#|-333333-33-3-3-3-7-7-7----555555-55-5-5-5-7-7-7--------------|
C#|-333333-33-3-3-3-7-7-7----555555-55-5-5-5-7-7-7--------------|

D#|-------------------------------------------------------------|
A#|-------------------------------------------------------------|
F#|-------------------------------------------------------------|
C#|-333333-33-3-3-3-7-7-7----555555-55-7-7-7-5------------------|
G#|-333333-33-3-3-3-7-7-7----555555-55-7-7-7-5------------------|
C#|-333333-33-3-3-3-7-7-7----555555-55-7-7-7-5------------------|

D#|-------------------------------------------------------------|
A#|-------------------------------------------------------------|
F#|-------------------------------------------------------------|
C#|-333333-33-3-3-3-7-7-7----555555-55-5-5-5-7-7-7--------------|
G#|-333333-33-3-3-3-7-7-7----555555-55-5-5-5-7-7-7--------------|
C#|-333333-33-3-3-3-7-7-7----555555-55-5-5-5-7-7-7--------------|


Post Chorus
D#|-------------------------------------------------------------|
A#|-------------------------------------------------------------|
F#|-------------------------------------------------------------|
C#|-33333333333333333333333333333333-5-5-7----------------------|
G#|-33333333333333333333333333333333-5-5-7----------------------|
C#|-33333333333333333333333333333333-5-5-7----------------------|
    ................................

Verse 2
D#|-------------------------------------------------------------|
A#|-------------------------------------------------------------|
F#|-------------------------------------------------------------|
C#|-77777777777777-2-222-333333333333333-5-5555-----------------|
G#|-77777777777777-2-222-333333333333333-5-5555-----------------|
C#|-77777777777777-2-222-333333333333333-5-5555-----------------|

D#|-------------------------------------------------------------|
A#|-------------------------------------------------------------|
F#|-------------------------------------------------------------|
C#|-77777777777777-2-222-3333333333-5-5-5-----------------------|
G#|-77777777777777-2-222-3333333333-5-5-5-----------------------|
C#|-77777777777777-2-222-3333333333-5-5-5-----------------------|

D#|-------------------------------------------------------------|
A#|-------------------------------------------------------------|
F#|-------------------------------------------------------------|
C#|-77777777-7-7-7---777777-10-10-3-333333-3-3-3-333333-5-5-7---|
G#|-77777777-7-7-7---777777-10-10-3-333333-3-3-3-333333-5-5-7---|
C#|-77777777-7-7-7---777777-10-10-3-333333-3-3-3-333333-5-5-7---|
    ........         ......         ......       ......
D#|-------------------------------------------------------------|
A#|-------------------------------------------------------------|
F#|-------------------------------------------------------------|
C#|-77777777-7-7-7---777777-10-10-3-333333-3-3-3-333333-5-5-----|
G#|-77777777-7-7-7---777777-10-10-3-333333-3-3-3-333333-5-5-----|
C#|-77777777-7-7-7---777777-10-10-3-333333-3-3-3-333333-5-5-----|
    ........         ......         ......       ......

D#|-------------------------------------------------------------|
A#|-------------------------------------------------------------|
F#|-------------------------------------------------------------|
C#|-------------------------------------------------------------|
G#|-0-0---0-00--0-00--0-0000---0-0---0-00--0-00--0-0000---------|
C#|-0-0-0-0-00--0-00--0-0000---0-0-0-0-00--0-00--0-0000---------|
    . .   . ..  . ..  . ....   . .   . ..  . ..  . ....

D#|-------------------------------------------------------------|
A#|-------------------------------------------------------------|
F#|-------------------------------------------------------------|
C#|-------------------------------------------------------------|
G#|-7-7-7-7-77—-7-77--7-7777---7-7-7-7-77—-7-77--7-7777---------|
C#|-7-7-7-7-77—-7-77--7-7777---7-7-7-7-77—-7-77--7-7777---------|

D#|-------------------------------------------------------------|
A#|-------------------------------------------------------------|
F#|-------------------------------------------------------------|
C#|-------------------------------------------------------------|
G#|-3-3-----3-33--3-33--3-3333---3-3-----3-33--3-33--0-0000-----|
C#|-3-3---3-3-33--3-33--3-3333---3-3---3-3-33--3-33--0-0000-----|
    . .     . ..  . ..  . ....   . .     . ..  . ..  . ....

D#|-------------------------------------------------------------|
A#|-------------------------------------------------------------|
F#|-------------------------------------------------------------|
C#|-------------------------------------------------------------|
G#|-7-7-7-7-77—-7-77--7-7777---7-7-7-7-77—-10-10-10-12----------|
C#|-7-7-7-7-77—-7-77--7-7777---7-7-7-7-77—-10-10-10-12----------|

Chorus
Guitar 1.

D#|--15--------------15-17-15----------15-----------------------|
A#|----13-12-13---------------17-15-------13-12----12-----------|
F#|-------------14------------------------------14----12--------|
C#|-------------------------------------------------------------|
G#|-------------------------------------------------------------|
C#|-------------------------------------------------------------|

D#|--15--------------15-17-15-------------15--------------------|
A#|----13-12-13---------------17-15----17-----------------------|
F#|-------------14----------------------------------------------|
C#|-------------------------------------------------------------|
G#|-------------------------------------------------------------|
C#|-------------------------------------------------------------|

D#|--15--------------15-17-15-----------------------------------|
A#|----13-12-13---------------17-15------15-13-12----12---------|
F#|-------------14-------------------------------14----12-------|
C#|-------------------------------------------------------------|
G#|-------------------------------------------------------------|
C#|-------------------------------------------------------------|

Guitar 2
D#|-------------------------------------------------------------|
A#|-------------------------------------------------------------|
F#|-------------------------------------------------------------|
C#|-333333-33-3-3-3-7-7-7----555555-55-5-5-5-7-7-7--------------|
G#|-333333-33-3-3-3-7-7-7----555555-55-5-5-5-7-7-7--------------|
C#|-333333-33-3-3-3-7-7-7----555555-55-5-5-5-7-7-7--------------|

D#|-------------------------------------------------------------|
A#|-------------------------------------------------------------|
F#|-------------------------------------------------------------|
C#|-333333-33-3-3-3-7-7-7----555555-55-7-7-7-5------------------|
G#|-333333-33-3-3-3-7-7-7----555555-55-7-7-7-5------------------|
C#|-333333-33-3-3-3-7-7-7----555555-55-7-7-7-5------------------|

D#|-------------------------------------------------------------|
A#|-------------------------------------------------------------|
F#|-------------------------------------------------------------|
C#|-333333-33-3-3-3-7-7-7----555555-55-5-5-5-7-7-7--------------|
G#|-333333-33-3-3-3-7-7-7----555555-55-5-5-5-7-7-7--------------|
C#|-333333-33-3-3-3-7-7-7----555555-55-5-5-5-7-7-7--------------|

Post Chorus
D#|-------------------------------------------------------------|
A#|-------------------------------------------------------------|
F#|-------------------------------------------------------------|
C#|-3333333333333333333333333333333333333333--------------------|
G#|-3333333333333333333333333333333333333333--------------------|
C#|-3333333333333333333333333333333333333333--------------------|
    ........................................

Bridge

D#|------------------------------------------------------------|
A#|------------------------------------------------------------|
F#|------------------------------------------------------------|
C#|-10-10-10-10-10-10-10-10-5555555-7777777777777777-----------|
G#|-10-10-10-10-10-10-10-10-5555555-7777777777777777-----------|
C#|-10-10-10-10-10-10-10-10-5555555-7777777777777777-----------|

D#|------------------------------------------------------------|
A#|------------------------------------------------------------|
F#|------------------------------------------------------------|
C#|-10-10-10-10-10-10-10-10-5555555-3333333-55555--------------|
G#|-10-10-10-10-10-10-10-10-5555555-3333333-55555--------------|
C#|-10-10-10-10-10-10-10-10-5555555-3333333-55555--------------|

Interlude
Guitar 1.
D#|--------------------|---------------------------------------|
A#|--------12-13-------|---------------------13-12-13----------|
F#|--14-12-------14-14-|---x3-then this---14----------14-1-----|
C#|--------------------|---------------------------------------|
G#|--------------------|---------------------------------------|
C#|--------------------|---------------------------------------|

Guitar 2.
D#|-------------------|----------------------------------------|
A#|-------------------|----------------------------------------|
F#|-------------------|-x2-------------------------------------|
C#|-------------------|----------------------------------------|
G#|-------------------|----------------------------------------|
C#|-3x24-7x8-5x24-7x8-|----------------------------------------|
    .    .   .    .

Chorus
Guitar 1.

D#|--15--------------15-17-15----------15-----------------------|
A#|----13-12-13---------------17-15-------13-12----12-----------|
F#|-------------14------------------------------14----12--------|
C#|-------------------------------------------------------------|
G#|-------------------------------------------------------------|
C#|-------------------------------------------------------------|

D#|--15--------------15-17-15-------------15--------------------|
A#|----13-12-13---------------17-15----17-----------------------|
F#|-------------14----------------------------------------------|
C#|-------------------------------------------------------------|
G#|-------------------------------------------------------------|
C#|-------------------------------------------------------------|

D#|--15--------------15-17-15-----------------------------------|
A#|----13-12-13---------------17-15------15-13-12----12---------|
F#|-------------14-------------------------------14----12-------|
C#|-------------------------------------------------------------|
G#|-------------------------------------------------------------|
C#|-------------------------------------------------------------|

Guitar 2
D#|-------------------------------------------------------------|
A#|-------------------------------------------------------------|
F#|-------------------------------------------------------------|
C#|-333333-33-3-3-3-7-7-7----555555-55-5-5-5-7-7-7--------------|
G#|-333333-33-3-3-3-7-7-7----555555-55-5-5-5-7-7-7--------------|
C#|-333333-33-3-3-3-7-7-7----555555-55-5-5-5-7-7-7--------------|

D#|-------------------------------------------------------------|
A#|-------------------------------------------------------------|
F#|-------------------------------------------------------------|
C#|-333333-33-3-3-3-7-7-7----555555-55-7-7-7-5------------------|
G#|-333333-33-3-3-3-7-7-7----555555-55-7-7-7-5------------------|
C#|-333333-33-3-3-3-7-7-7----555555-55-7-7-7-5------------------|

D#|-------------------------------------------------------------|
A#|-------------------------------------------------------------|
F#|-------------------------------------------------------------|
C#|-333333-33-3-3-3-7-7-7----555555-55-5-5-5-7-7-7--------------|
G#|-333333-33-3-3-3-7-7-7----555555-55-5-5-5-7-7-7--------------|
C#|-333333-33-3-3-3-7-7-7----555555-55-5-5-5-7-7-7--------------|

Coda
D#|--15--------------15-17-15------------15---------------------|
A#|----13-12-13---------------17-15---17----13------------------|
F#|-------------14----------------------------------------------|
C#|-------------------------------------------------------------|
G#|-------------------------------------------------------------|
C#|-------------------------------------------------------------|

END.
comments
We did not receive enough feedback on this tab! Please rate:
print report bad tab
1 2 3 4 5
I want to post or [tab]
guest
You may want to rate the tab now too:
select rating
Please do not post tabs as comments. Select "correction" instead!