Oops, an error
Loading. Please wait.

The Band Bass Tab

4,898 views 33 this week
no commentswrite comment
1 2 3 4 5
accurate
x 1
Autoscroll
+/-
esc
set tempo
stop
Contributor
Hey! There's an official Ultimate Guitar app which is ideal
for learning songs when you're away from computer. Get the app
WARNING: You are trying to view
                                    content from Ultimate-Guitar.com
                                    in an unauthorized application,
                                    which is prohibited.

                                    Please use an official Ultimate
                                    Guitar Tabs application for iPhone,
                                    iPad or Android to access legitimate
                                    chords, guitar, bass, and drum tabs
                                    from Ultimate-Guitar.com database.

                                    Type "ultimate guitar tabs" in Apple
                                    App Store's or Android Market's
                                    search to find the application.
--------
The Band
--------
The Band
Bass Tabs
Bass played by Rick Danko
All songs by Robbie Robertson except where noted

Original track Listing

1. Across the Great Divide
2. Rag Mama Rag
3. The Night They Drove Old Dixie Down
4. When You Awake (Richard Manuel, RObbie Robertson)
5. Up on Cripple Creek
6. Whispering Pines (Manuel, Robertson)

7. Jemima Surrender (Levon Helm, Robertson)
8. Rockin' Chair
9. Look Out Cleveland
10. Jawbone (Manuel, Robertson)
11. The Unfaithful Servant
12. King Harvest (Has Surely Come)


-----------------------
Across the Great Divide
-----------------------

112BPM, 4/4

Intro (slow)

|---------|---------|---------|-----------|
|---------|---------|---------|-----------|
|---------|---------|---------|-5---------|
|---------|---------|---------|---------2-|

Chorus

||---------------|--------------|--------------|-/9--7-----------||
||o--------------|--------------|--------------|--------7p5-----o||
||o---------/5---|---------7----|---------3----|------------7p5-o||
||--3---23-----4-|-5---59-----7-|-8--8---3---3-|-----------------||

Verse

|--------------|--------------|--------------|--------------|
|--------------|-----------5--|--------------|-----------5--|
|----------5---|-------57-----|----------5---|-------57-----|
|-3--3567----7-|-8--8---------|-3--3567----7-|-8--8---------|

|--------------|---------------|----------|----------|
|--------------|------------5--|----------|----------|
|----------5---|-------5-7-----|-5--------|-------7--|
|-3--3567----7-|-8--8----------|----------|----------|

Chorus

||---------------|--------------|--------------|-/9--7-----------||
||o--------------|--------------|--------------|--------7p5-----o||
||o---------25---|---------7----|---------3----|------------7p5-o||
||--3---23-----4-|-5---59-----7-|-8--8---3---3-|-----------------||

Verse

||---------------|--------------|--------------|--------------|
||o--------------|-----------5--|--------------|-----------5--|
||o----------5---|-------57-----|----------5---|-------57-----|
||--3--3567----7-|-8--8---------|-3--3567----7-|-8--8---------|

|--------------|--------------|----------|------------||
|--------------|-----------5--|----------|-----------o||
|----------5---|-------57-----|-5--------|-----5--7--o||
|-3--3567----7-|-8--8---------|----------|------------||

Chorus

||---------------|--------------|--------------|-/9--7-----------||
||o--------------|--------------|--------------|--------7p5-----o||
||o---------25---|---------7----|---------3----|------------7p5-o||
||--3---23-----4-|-5---59-----7-|-8--8---3---3-|-----------------||

Verse

|--------------|--------------|--------------|--------------|
|--------------|-----------5--|--------------|-----------5--|
|----------5---|-------57-----|----------5---|-------57-----|
|-3--3567----7-|-8--8---------|-3--3567----7-|-8--8---------|

|--------------|---------------|----------|-----------|
|--------------|------------5--|----------|-----------|
|----------5---|-------5-7-----|-5--------|-----5--7--|
|-3--3567----7-|-8--8----------|----------|-----------|

Chorus

||---------------|--------------|--------------|-/9--7-----------||
||o--------------|--------------|--------------|--------7p5-----o||
||o---------25---|---------7----|---------3----|------------7p5-o||
||--3---23-----4-|-5---59-----7-|-8--8---3---3-|-----------------||

Ending

|---------------|--------------|--------------|-------------|
|---------------|--------------|--------------|-------2-----|
|---------25----|---------7----|---------3----|-2--5-----5--|
|-3---23------4-|-5---59-----7-|-8--8---3---3-|-------------|

|----------|---------*|
|----------|---------*|
|----------|---------*|
|-3--------|---------*|


------------
Rag Mama Rag
------------

Rag Mama Rag has no bass, just John Simon playing the tuba. Rick's playing fiddle.


-----------------------------------
The Night They Drove Old Dixie Down
-----------------------------------

128BPM, 4/4

Intro

|---------|
|---------|
|---------|
|---------|

Verse

|----------|----------|-----------|----------|
|-7--------|-5--------|-----------|----------|
|----------|----------|-8----7----|-5--------|
|----------|----------|-----------|----------|

|----------|----------|------------|-----------|
|-7--------|-5--------|------------|-----------|
|----------|----------|-8--8--7----|-5-------6-|
|----------|----------|------------|-----------|

|----------|------------|----------|-----------|
|----------|------------|----------|-----------|
|-7--------|-8------10--|----------|-----------|
|----------|------------|-8--------|-10--------|

|----------|------------|----------|---------------|
|----------|------------|----------|---------------|
|-7--------|-8------10--|----------|---------10s12-|
|----------|------------|-8--------|-10------------|

|---------------|
|-10s12---------|
|---------------|
|------------0S=|

Chorus

|----------|----------|----------|----------|
|----------|----------|----------|----------|
|----------|----------|----------|----------|
|-3--------|-1--------|-3--------|-1--------|

|----------|-----------|----------|----------|
|----------|-----------|----------|----------|
|----------|-----------|----------|----------|
|-3--------|-1------1--|-3--------|-1--------|

|------------|-----------|-----------|------------|
|------------|-----------|-----------|------------|
|------------|-----------|-----------|----------3-|
|-3----1-3---|-5----5----|-3----3----|-1----1-----|

|-----------|---------|
|-2-5-------|---------|
|----3------|---------|
|-----------|---------|

Verse

|----------|----------|-----------|-----------|
|-7--------|-5--------|-----------|-----------|
|----------|----------|-8----7----|-5-------7-|
|----------|----------|-----------|-----------|

|----------|----------|-----------|----------|
|-7--------|-5--------|-----------|----------|
|----------|----------|-8----7----|-5--------|
|----------|----------|-----------|----------|

|----------|------------|----------|-----------|
|----------|------------|----------|-----------|
|-7--------|-8------10--|----------|-----------|
|----------|------------|-8--------|-10--------|

|----------|------------|----------|-----------------|
|----------|------------|----------|-----------------|
|-7--------|-8------10--|----------|-----------10s12-|
|----------|------------|-8--------|-10----10--------|

|---------------|
|-10s12---------|
|---------------|
|------------0h=|

Chorus

|----------|-----------|----------|-----------|
|----------|-----------|----------|-----------|
|----------|-----------|----------|-----------|
|-3--------|-1----1----|-3--------|-1----1----|

|----------|-----------|----------|-----------|
|----------|-----------|----------|-----------|
|----------|-----------|----------|-----------|
|-3--------|-1----1----|-3--------|-1----1----|

|------------|-----------|-----------|------------|
|------------|-----------|-----------|------------|
|------------|-----------|-----------|----------3-|
|-3----1-3---|-5----5----|-3----3----|-1----1-----|

|-----------|--------|-----------|---------| [Second bar 2/4]
|-2-5-------|-3------|-2-5-------|---------|
|----3------|------3-|----3------|---------|
|-----------|--------|-----------|---------|

Verse

|----------|-----------|-----------|----------|
|-7--------|-5-------x-|-----------|----------|
|----------|-----------|-8----7----|-5--------|
|----------|-----------|-----------|----------|

|----------|----------|-----------|----------|
|-7--------|-5--------|-----------|----------|
|----------|----------|-8----7----|-5--------|
|----------|----------|-----------|----------|

|----------|------------|----------|-----------|
|----------|------------|----------|-----------|
|-7--------|-8------10--|----------|-----------|
|----------|------------|-8--------|-10--------|

|----------|------------|----------|-----------------|
|----------|------------|----------|-----------------|
|-7--------|-8------10--|----------|-----------10s12-|
|----------|------------|-8--------|-10----10--------|

|-------------|
|-10s12-------|
|-------------|
|-------------|

Chorus/Fade-out

|----------|-----------|----------|-----------|
|----------|-----------|----------|-----------|
|----------|-----------|----------|-----------|
|-3--------|-1----1----|-3--------|-1----1----|

|-----------|-----------|-----------|-----------|
|-----------|-----------|-----------|-----------|
|-----------|-----------|-----------|-----------|
|-3----3----|-1----1----|-3----3----|-1----1----|

|------------|-----------|----------|------------|
|------------|-----------|----------|------------|
|------------|-----------|----------|----------3-|
|-3----1-3---|-5----5----|-3--------|-1----1-----|

|-----------|-----------|-----------|-----------|
|-2-5-------|-----------|-----------|-----------|
|----3------|-2----1----|-----------|-----------|
|-----------|-----------|-5----4----|-3----2----|

|-----------|-----------|-----------|-----------|
|-----------|-----------|-----------|-----------|
|-----------|-----------|-----------|-----------|
|-3----3----|-1----1----|-3----3----|-1----1----|

|-----------|-----------|-----------|-----------|
|-----------|-----------|-----------|-----------|
|-----------|-----------|-----------|-----------|
|-3----3----|-1----1----|-3----3----|-1----1----|

|------------|-----------|-----------|------------|
|------------|-----------|-----------|------------|
|------------|-----------|-----------|----------3-|
|-3----1-3---|-5----5----|-3----3----|-1----1-----|

|-----------*|
|-2-5-------*|
|----3------*|
|-----------*|


--------------
When You Awake
--------------

144BPM, 4/4

Intro

|---------|---------|---------|---------|
|---------|---------|---------|---------|
|---------|---------|---------|---------|
|---------|---------|---------|---------|

|----------|---------|
|----------|---------|
|----------|---------|
|-2--------|---------|

Verse

|----------|----------|------------|------------|
|----------|----------|------------|------------|
|----------|----------|-6---4------|---7--------|
|-0--------|-2--------|---------0--|------2--4--|

|----------|-----------|-----------|-------------|
|----------|-----------|-----------|-------------|
|----------|-----------|-4-------4h|=5---4-5--7--|
|-5--------|-7-------7-|-----------|-------------|

|-------------|--------------|------------|-------------|
|-------------|--------------|------------|-------------|
|-/9b---------|----------5h6h|=7----------|-5--5--------|
|-------/5b---|-7---5-7------|------5--7--|--------5-7--|

Chorus

|-----------|-----------|-----------|------------|
|-----------|-----------|-----------|------------|
|-3---------|-3----2----|-----------|------0--2--|
|------3----|-----------|-5----3----|-1----------|

|-----------|------------|-----------|-----------|
|-----------|------------|-----------|-----------|
|-3----3----|------2--5--|-3---------|-3----2----|
|-----------|-3----------|------3----|-----------|

|-----------|------------|-----------|------------|
|-----------|------------|-----------|------------|
|-----------|------0--2--|-3----3----|------2--5--|
|-5----3----|-1----------|-----------|-3----------|

|--------------|-------2-4-----|
|--------------|------4--------|
|-3--3--3--3-x-|-2--2--------2-|
|--------------|---------------|

Verse

|----------|----------|------------|------------|
|----------|----------|------------|------------|
|----------|----------|-6---4------|---7--------|
|-0--------|-2--------|---------0--|------2--4--|

|----------|-----------|------------|-------------|
|----------|-----------|------------|-------------|
|----------|-----------|-4----4--7--|-5---4h5--7--|
|-5--------|-7------7--|------------|-------------|

|-------------|--------------|-------------|-------------|
|-------------|--------------|-------------|-------------|
|-/9b---------|----------5h6h|=7-----------|-5--5--------|
|-------/5b---|-7---5-7------|-----7p5--7--|--------5-7--|

Chorus

|-----------|-----------|-----------|------------|
|-----------|-----------|-----------|------------|
|-3---------|-3----2----|-----------|---------2--|
|------3----|-----------|-5----3----|-1----5-----|

|-----------|------------|-----------|-----------|
|-----------|------------|-----------|-----------|
|-3----3----|------2--5--|-3---------|-3----2----|
|-----------|-3----------|------3----|-----------|

|-----------|------------|-----------|------------|
|-----------|------------|-----------|------------|
|-----------|------0--2--|-3----3----|------2--5--|
|-5----3----|-1----------|-----------|-3----------|

|-------------|-------2-4---|
|-------------|------4------|
|-3--3--3--3--|-2--2--------|
|-------------|-------------|

Verse

|----------|-----------|------------|------------|
|----------|-----------|------------|------------|
|----------|-----------|-6---4------|---7--------|
|-0--------|-/2--------|---------0--|------2--4--|

|-----------|-----------|-----------|-------------|
|-----------|-----------|-----------|-------------|
|-----------|-----------|-4------4--|-5---4h5--7--|
|-5------5--|-7-------x-|-----------|-------------|

|-------------|--------------|-------------|---------------|
|-------------|--------------|-------------|---------------|
|-/9b---------|----------5h6-|-7-----------|---------------|
|-------/5b---|-7---5-7------|-----7p5--7S=|=10--10---5-7--|

Chorus

|-----------|-----------|-----------|------------|
|-----------|-----------|-----------|------------|
|-3---------|-3----2----|-----------|------0--2--|
|-----x3----|-----------|-5----3----|-1----------|

|-----------|------------|-----------|-----------|
|-----------|------------|-----------|-----------|
|-3----3----|------2--5--|-3---------|-3----2----|
|-----------|-3----------|------3----|-----------|

|-----------|------------|-----------|------------|
|-----------|------------|-----------|------------|
|-----------|------0--2--|-3----3----|------2--5--|
|-5----3----|-1----------|-----------|-3----------|

|-------------|-------2-4---|
|-------------|------4------|
|-3--3--3--3--|-2--2--------|
|-------------|-------------|

Bridge

|----------|-----------|-----------|----------|
|----------|-----------|-----------|----------|
|----------|--------2--|-----------|----------|
|-0--------|-4---------|-2--2------|---2------|

|----------|-----------|----------|-----------|
|----------|-----------|----------|-------6\--|
|----------|--------2--|----------|-----------|
|-0--------|-4---------|-2--------|-----------|

|-------------|-------------|------------|-------------|
|----2-----2--|----2--------|------------|-------------|
|-------------|-------4--2--|------------|---/4--2--4--|
|-0-----0-----|-4-----------|-2--2----2--|-------------|

|----------|----------|----------|-----------|
|----------|----------|----------|-------6\--|
|----------|----------|----------|-----------|
|-0--------|-4--------|-2--------|-----------|

|----------|------------|-----------|---------------|
|----------|------------|-----------|---------------|
|----------|------2-x4--|-----------|---2---x4-2----|
|-0--------|-4----------|-2------2--|-2----------4--|

|-----------|-------------|-----------|------------|
|------2----|-------------|-----------|------------|
|-----------|-4-2------2--|-----------|-----2--/4--|
|-0---------|-------4-----|-2------2--|-------4----|

|-----------|-------------|----------|------------|
|------2----|-------------|----------|------------|
|-----------|-4-x2-----2--|----------|------2--4--|
|-0---------|-------4-----|-2--------|---2--------|

|-------------|------------|----------|--------------|
|------2----2-|------------|----------|--------------|
|---------4---|---2--4--2--|----------|----2---4--2--|
|-0-----------|--4---------|-2--------|-2----4-------|

|-----------|------------|---------|---------*|
|------2----|------------|---------|---------*|
|-----------|------2--4--|---------|---------*|
|-0---------|---4--------|---------|---------*|


-------------------
Up on Cripple Creek
-------------------

144BPM, 4/4

Intro

|------------|-----------|------------|-----------------|
|------------|-----------|------------|-----------------|
|------------|-----------|------------|------55x2-------|
|-5-5------4h|-5-5-------|-5-5------4h|-5-5-------5-2-0-|

Verse

||------------|------------|-----------|------------|
||o-----------|------------|-----------|------------|
||o-----------|----------4h|-5-------4h|-5-5--------|
||--5-------4h|-5-5--------|-----------|----------4h|

|-----------|-----------|-----------|---------------||
|-----------|-----------|-----------|--------------o||
|---------4h|-5-------6h|-7-------6h|-7---6h7-8-9--o||
|-5---------|-----------|-----------|---------------||

Chorus

|-------------|-------------|-------------|----------|
|-------------|-------------|-------------|----------|
|-------------|--4----4--7--|-5------x-5--|---5------|
|-5---5--2-5--|----5--------|-----5-------|----------|

|--------------|-----------|------------|-----------|
|--------------|-----------|------------|-----------|
|-----------7--|---7-----7-|-9----9---9-|-10--------|
|-0---7-x-7----|-----------|------------|-----------|

|---------|---------|
|---------|---------|
|---------|---------|
|---------|---------|

Verse

||------------|------------|-----------|------------|
||o-----------|------------|-----------|------------|
||o-----------|----------4h|-5-------4h|-5-5--------|
||--5-------4h|-5-5--------|-----------|----------4h|

|-----------|-----------|-----------|-----------------||
|-----------|-----------|-----------|----------------o||
|---------4h|-5-------6h|-7-------6h|-7---6h7-8-9-10-o||
|-5---------|-----------|-----------|-----------------||

Chorus

|------------|------------|-------------|----------|
|------------|------------|-------------|----------|
|------------|---------4--|-5------x-5--|---5------|
|-5-----2-5--|---5--7-----|-----5-------|----------|

|------------|------------|-----------|-----------|
|------------|------------|-----------|-----------|
|-7-----4-7--|--4-7-----7-|-9-------9-|-10--------|
|------------|------------|-----------|-----------|

Verse

||------------|-----------|-----------|-------------| *second time
||o-----------|-----------|-----------|-------------|
||o-----------|-----------|-5-------4h|-5-5---------|
||--5-------4h|-5-5-------|-----------|----------4h*|

|-----------|-----------|-----------|---------------||
|-----------|-----------|-----------|--------------o||
|---------4h|-5-------6h|-7-------6h|-7---6h7-8-9--o||
|-5---------|-----------|-----------|---------------||

Chorus

|------------|------------|------------|-----------|
|------------|------------|------------|-----------|
|------------|---------4--|-5-----x-5--|---5-----5-|
|-5-----0-5--|---5--7-----|------------|-----------|

|------------|------------|-----------|-----------|
|------------|------------|-----------|-----------|
|-7-----4-7--|--4-7-----7-|-9-------9-|-10--------|
|------------|------------|-----------|-----------|

Verse

||------------|-----------|-----------|-------------| *second time
||o-----------|-----------|-----------|-------------|
||o-----------|-----------|-5-------4h|-5-5---------|
||--5-------4h|-5-5-------|-----------|----------4h*|

|-----------|-----------|-----------|-----------------||
|-----------|-----------|-----------|----------------o||
|---------4h|-5-------6h|-7-------6h|-7---6h7-8-9-10-o||
|-5---------|-----------|-----------|-----------------||

Chorus

|------------|-------------|------------|-----------|
|------------|-------------|------------|-----------|
|------------|----------4--|-5-----x-5--|---5-----5-|
|-5-----0-5--|--0-5--7-----|------------|-----------|

|------------|------------|-----------|-----------|
|------------|------------|-----------|-----------|
|-7-----4-7--|--4-7-----7-|-9-------9-|-10--------|
|------------|------------|-----------|-----------|

Interlude

|-------------|-----------|------------|-------------|
|-------------|-----------|------------|-------------|
|---------4---|-5---------|------------|-5-----4-5---|
|-5---0-5-----|---------4-|-5---4-5----|-----------4-|

|------------|-----------|------------|---------|
|------------|-----------|------------|---------|
|------------|-5---------|----------5-|---------|
|-5---4-5----|---------4-|-5-----7----|---------|

Verse

|-----------|------------|-----------|------------|
|-----------|------------|-----------|------------|
|-----------|----------4h|-5-------4h|-5-5--------|
|-5-------4h|-5-5--------|-----------|----------4h|

|-----------|-----------|-----------|---------------|
|-----------|-----------|-----------|---------------|
|---------4h|-5-------6h|-7-------6h|-7---7p6-7-8-9-|
|-5---------|-----------|-----------|---------------|

|-----------|------------|-----------|------------|
|-----------|------------|-----------|------------|
|-----------|----------4h|-5-------4h|-5-5--------|
|-5-------4h|-5-5--------|-----------|----------4h|

|-----------|-----------|-----------|----------------|
|-----------|-----------|-----------|---------7------|
|---------4h|-5-------6h|-7-------6h|-7---7-9---9-\--|
|-5---------|-----------|-----------|----------------|

Chorus

|------------|-------------|------------|-----------|
|------------|-------------|------------|-----------|
|------------|----------4--|-5-----x-5--|---5-----5-|
|-5-----0-5--|--0-5--7-----|------------|-----------|

|------------|------------|-----------|-----------|
|------------|------------|-----------|-----------|
|-7-----4-7--|--4-7-----7-|-9-------9-|-10--------|
|------------|------------|-----------|-----------|

Coda

|------------|-----------|------------|-------------|
|------------|-----------|------------|-------------|
|------------|-5---------|------------|-5-----4-5-7-|
|-5---0-5----|---------0-|-5---0-5----|-------------|

|------------|------------|-------------|----------|
|------------|------------|-------------|----------|
|------------|-5-----4-5--|-------0-4-5-|----------|
|-5---0-5----|------------|-5-----------|--------0-|

|-----------|------------|------------|------------|
|-----------|------4-----|------------|------------|
|---------5-|--------7---|------------|-5-----5-5--|
|-5---------|----------0-|-5---0-5----|------------|

|------------|------------|------------|-------------|
|------------|------------|------------|-------------|
|------------|-5-----4-5--|------------|-5-----4-5-7-|
|-5---0-5----|------------|-5---0-5----|-------------|

|-------------|--------------|-------------|----------*|
|-------------|--------------|-------------|----------*|
|---------4---|--5-----------|---------4---|-5--------*|
|-5---0-5-----|-----7-5-2-0--|-5---0-5-----|----------*|


----------------
Whispering Pines
----------------

144BPM, 4/4

Intro

|---------|---------|---------|----------|
|---------|---------|---------|----------|
|---------|---------|---------|-------5--|
|---------|---------|---------|----------|

Verse

|----------|----------|----------|-----------|
|----------|----------|----------|--------5--|
|-7--------|-7--------|-7--------|-7---------|
|----------|----------|----------|-----------|

|----------|----------|----------|-----------|
|----------|----------|----------|-----------|
|----------|----------|----------|-----------|
|-5--------|-5--------|-5--------|-5----3----|

|----------|------------|----------|-----------|
|----------|------------|----------|-----------|
|----------|------------|----------|------2----|
|-1--------|-1----3--5--|-6--------|-3---------|

|----------|----------|-----------|-------------|
|----------|----------|-----------|-------------|
|-3--------|-3--------|-3---------|-3-----3--5--|
|----------|----------|--------3--|----3--------|

|----------|----------|----------|-----------|
|----------|----------|----------|------5----|
|-7--------|-7--------|-7--------|-7---------|
|----------|----------|----------|-----------|

|----------|-----------|-----------|-----------|
|----------|-----------|-----------|-----------|
|----------|-----------|-----------|-----------|
|-5--------|-5------x--|-5-------x-|-5----3----|

|-----------|------------|-----------|-----------|
|-----------|------------|-----------|-----------|
|-----------|------------|---------x-|-5----5----|
|-1-------x-|-1----3--5--|-6---------|-----------|

Chorus

|-----------|------------|-----------|-----------|
|-----------|------------|-----------|------5----|
|-6----6----|---------5--|-6----6----|-8---------|
|-----------|-6----8-----|-----------|-----------|

|-----------|----------|-----------|-----------|
|-6---------|----------|-5----5----|-----------|
|--------6--|----------|-----------|------2----|
|-----------|-4--------|-----------|-3---------|

Verse

|----------|---------|------------|-------------|
|----------|---------|------------|-------------|
|-3--------|---------|---7--3-----|-3-----3--5--|
|----------|---------|---------3--|----3--------|

|----------|----------|----------|-----------|
|----------|----------|----------|------5----|
|-7--------|-7--------|-7--------|-7---------|
|----------|----------|----------|-----------|

|----------|----------|----------|-----------|
|----------|----------|----------|-----------|
|----------|----------|----------|-----------|
|-5--------|-5--------|-5--------|-5----3----|

|----------|------------|----------|-----------|
|----------|------------|----------|-----------|
|----------|------------|----------|------2----|
|-1--------|-1----3--5--|-6--------|-3---------|

|----------|----------|------------|-------------|
|----------|----------|------------|-------------|
|-3--------|-3--------|---3--7--5--|-3-----3--5--|
|----------|----------|------------|----3--------|

|----------|----------|----------|-----------|
|----------|----------|----------|------5----|
|-7--------|-7--------|-7--------|-7---------|
|----------|----------|----------|-----------|

|----------|----------|----------|-----------|
|----------|----------|----------|-----------|
|----------|----------|----------|-----------|
|-5--------|-5--------|-5--------|-5----3----|

|----------|------------|-----------|-----------|
|----------|------------|-----------|-----------|
|----------|------------|-----------|-5----5----|
|-1--------|-1----3--5--|-6----6----|-----------|

Chorus

|----------|------------|-----------|-----------|
|----------|------------|-----------|------5----|
|-6--------|---------5--|-6----6----|-8---------|
|----------|-6----8-----|-----------|-----------|

|-----------|----------|-----------|-----------|
|-6---------|----------|-5----5----|-----------|
|--------6--|----------|-----------|------2----|
|-----------|-4--------|-----------|-3---------|

Bridge

|----------|------------|----------|-----------| *Dotted eighths
|----------|------------|----------|-----------|
|-3--------|------5*-6*-|-7--------|-6---------|
|----------|------------|----------|------6----|

|----------|-----------|----------|----------|
|----------|-----------|----------|----------|
|----------|-----------|-3--------|----------|
|-4--------|---3--1----|----------|-3--------|

Verse

|----------|----------|-----------|------------|
|----------|----------|-----------|------------|
|-3--------|----------|-3---------|------3--5--|
|----------|-------3--|--------0--|---3--------|

|----------|----------|----------|-----------|
|----------|----------|----------|------5----|
|-7--------|-7--------|-7--------|-7---------|
|----------|----------|----------|-----------|

|----------|----------|----------|-----------|
|----------|----------|----------|-----------|
|----------|----------|----------|-----------|
|-5--------|-5--------|-5--------|-5----3----|

|----------|------------|------------|------------|
|----------|------------|------------|------------|
|----------|------------|------------|----5-------|
|-1--------|-1----3--5--|-6----6--8--|-8-----7----|

|----------|-----------|-----------|-------------|
|----------|-----------|-----------|-------------|
|-3--------|-3---------|-3---------|-3--3--5--6--|
|----------|--------3--|--------3--|-------------|

|----------|----------|----------|-----------|
|----------|----------|----------|------5----|
|-7--------|-7--------|-7--------|-7---------|
|----------|----------|----------|-----------|

|----------|----------|----------|-----------|
|----------|----------|----------|-----------|
|----------|----------|----------|-----------|
|-5--------|-5--------|-5--------|-5----3----|

|----------|------------|------------|------------|
|----------|------------|------------|------------|
|----------|------------|------------|----5--5----|
|-1--------|-1----3--5--|-6----6--8--|-6----------|

Chorus

|----------|------------|-----------|-----------|
|----------|------------|-----------|------5----|
|-6--------|---------5--|-6----6----|-8---------|
|----------|-6----8-----|-----------|-----------|

|-----------|----------|-----------|-----------|
|-6---------|----------|-5----5----|-----------|
|--------6--|----------|-----------|------2----|
|-----------|-4--------|-----------|-3---------|

Ending

|----------|---------|----------|------------|
|----------|---------|----------|------------|
|-3--------|---------|-3--------|--------0h2-|
|----------|---------|----------|---3--------|

|----------|---------|---------|---------*|
|----------|---------|---------|---------*|
|-3--------|---------|---------|---------*|
|----------|---------|---------|---------*|


----------------
Jemima Surrender
----------------

112BPM, 4/4

Intro

|------------7---|----7----7--|------------7---|----7----7---|
|--3-4---3-4---3-|------------|--3-4---3-4---3-|-------------|
|------5---------|-5----------|------5---------|-5---------5-|
|----------------|------------|----------------|-------------|

|---------------|
|---2-2-3-3-4-4-|
|---------------|
|---------------|

Verse

|----7-----7--|------------7---|-------------|---------------|
|-------------|--3-4---3-4-----|-------2-----|------------4--|
|-5-----5-----|------5-------6-|-7---4---4---|-7-7-7-7-7-----|
|-------------|----------------|-------------|---------------|

|----------------|----------------|----------------|----------7-----|
|-5----------5-5-|--5-2---2-------|--------------7-|--7-7-7-9---9-7-|
|--------2-5-----|------5---5-2---|----------4-7---|----------------|
|----3-3---------|--------------3-|-5--5-2-5-------|----------------|

|----------------|---------------|--------------|-----------------|
|------3-4---3---|---5-5-4-3-----|--------3-4---|---5-5-5-3-3-3---|
|-5--5-----5---5-|-------------3-|-5--5-------5-|---------------3-|
|----------------|-3-------------|--------------|-3---------------|

|----------------|-----------------|-----------------|----------7-----|
|------3-4-3-4---|---------2-------|---------------7-|--7-7-7-9---9-7-|
|-5--5---------5-|-----------5-2---|-----------4-7---|----------------|
|----------------|-3-3-3-3-------3-|-5-2-5-2-5-------|----------------|

|---------------|---------------|----------------|-----------------|
|-----5------5--|-----2------2--|-----5----------|-----------7-7-7-|
|---------------|---------------|----------2-5---|-------4-7-------|
|-3-3----3-3----|-0-0----0-0----|-3-3----3-----3-|-5-2-5-----------|

|------------7---|------------|------------7---|----7----7---|
|--3-4---3-4---3-|------------|--3-4---3-4---3-|-------------|
|------5---------|-5--5----5--|------5---------|-5---------5-|
|----------------|------------|----------------|-------------|

|---------------|
|---2-2-3-3-4-4-|
|---------------|
|---------------|

Verse

|----7----7--|------------7---|-------------|---------------|
|------------|--3-4---3-4-----|-------2-----|------------4--|
|-5----------|------5-------6-|-7---4---4---|-7-7-7-7-7-----|
|------------|----------------|-------------|---------------|

|----------------|---------------|----------------|----------7-----|
|-5----------5-5-|--5-5----5-2---|--------------7-|--7-7-7-9---9-7-|
|--------2-5-----|---------------|----------4-7---|----------------|
|----3-3---------|------3------3-|-5--5-2-5-------|----------------|

|-------------|----------------|----------------|----------------|
|---------3---|---5-5-5-3--3---|------3-4-3-4---|---5-5-5-3--3---|
|-5--5------5-|--------------3-|-5--5---------5-|--------------3-|
|-------------|-3--------------|----------------|-3--------------|

|--------------|-----------------|----------------|----------7-----|
|--------3-4---|---------2-------|--------------7-|--7-7-7-9---9-7-|
|-5--5-------5-|-----------5-2---|----------4-7---|----------------|
|--------------|-3-3-3-3-------3-|-5-2-5--5-------|----------------|

|---------------|---------------|----------------|-----------------|
|-----5------5--|-----2------2--|-----5----------|-----------7-7-7-|
|---------------|---------------|----------5-2---|-------4-7-------|
|-3-3----3-3----|-0-0----0-0----|-3-3----3-----3-|-5-5-5-----------|

|-------------7---|
|-7-3-4---3-4---3-|
|-------5---------|
|-----------------|

Solo

|---------------|---------------|----------------|-------------|
|------4--------|---------------|----------------|-------------|
|-5--5----7-5---|-3-3---5-5-2---|-------555-7-5--|-------------|
|-------------7-|-------------5-|-7-7-7----------|-/7--5----2--|

|---------------|----------------|-----------------|-----------|
|---------------|----------------|-----------------|-----------|
|-5---/9--7-5---|-3-3--/7--5-----|---5-7-5---5-7-5-|-----------|
|-------------7-|------------7-5-|-7-------7-------|-5--5------|

Bridge

|----------------|----------------|---------------|--------------|
|--------3-------|----------------|---------------|--------------|
|------3---3-----|------2---2-5-3-|--3-3---3--6-7-|-7---5-7------|
|-1--5-------5-3-|--3-3---3-------|------3--------|---7--------0-|

|-----------------|----------------|----------------|--------------|
|---3-------------|----------------|----------------|--------------|
|---------3---5---|------2---2-5-3-|--3-3---3-------|--------------|
|-1---1-5---5---3-|--3-3---3-------|------3---5-3-0-|-5---5--2-0-2-|

|--------------|----------------|
|--------------|----2-2-3-3-4-4-|
|--------------|----------------|
|-5---5--5-2-0-|-5--------------|

Verse

|--------------|------------7---|-------------|---------------|
|--------------|--3-4---3-4-----|-------------|------------4--|
|-5--5--5-5-5--|------5-------6-|-7---4-7-4---|-7-7-7-7-7-----|
|--------------|----------------|-------------|---------------|

|----------------|----------------|----------------|----------7-----|
|-5----------5-5-|--5-5-----5-2---|--------------7-|--7-7-7-9---9-7-|
|--------2-5-----|----------------|----------4-7---|----------------|
|----3-3---------|------3-3-----3-|-5--5-2-5-------|----------------|

|-------------|-----------------|--------------|----------------|
|---------3---|---5-5-5-3-3-3---|--------3-4---|---5-5-5-3--3---|
|-5--5------5-|---------------3-|-5--5-------5-|--------------3-|
|-------------|-3---------------|--------------|-3--------------|

|----------------|-----------------|-----------------|----------7-----|
|------3-4-3-4---|-------------2---|---------------7-|--7-7-7-9---9-7-|
|-5--5---------5-|-------2-5-----5-|-----------4-7---|----------------|
|----------------|-3-3-3-----3-----|-5-2-5-2-5-------|----------------|

|---------------|---------------|----------------|-----------------|
|-----5------5--|-----2------2--|-----5----------|-----------7-7-7-|
|---------------|---------------|------------2---|-------4-7-------|
|-3-3----3-3----|-0-0----0-0----|-3-3----3-5---3-|-5-5-5-----------|

|-------------7---|----7-------|------------7---|----7-------|
|-7-3-4---3-4---3-|------------|--3-4---3-4---3-|------------|
|-------5---------|-5-------5--|------5---------|-5-------5--|
|-----------------|------------|----------------|------------|

|---------------|----------|---------|---------*|
|---2-2-3-3-4-4-|----------|---------|---------*|
|---------------|-5--------|---------|---------*|
|---------------|----------|---------|---------*|


-------------
Rockin' Chair
-------------

116BPM, 2/4

Intro

|-----|-----|-----|-----|------|-----|-----|-----|
|-----|-----|-----|-----|-5----|-----|-----|-----|
|-----|-----|-----|-----|------|-----|-----|-----|
|-----|-----|-----|-----|------|-----|-----|-----|

Verse

 3/4
|--------|--------|
|-3------|--------|
|--------|-5------|
|--------|--------|

 2/4
|--------|
|--------|
|-3----0-|
|--------|

|--------|--------|--------|-------|-------|-------|-------|-------|
|--------|--------|--------|----2--|-3--2--|-------|-3--2--|-------|
|-1----0-|-1----2-|-3----1-|-3-----|-------|-5--3--|-------|-5--3--|
|--------|--------|--------|-------|-------|-------|-------|-------|

|-------|-------|-------|-------|-------|------|------|--------|
|-------|-------|-------|-------|-------|------|------|--------|
|-5--5--|-3--3--|-2--2--|-------|-------|------|------|------5-|
|-------|-------|-------|-3--5--|-6--6--|-5----|-3----|-3------|

|-------|-------|------|------|-----|
|-------|-------|------|------|-----|
|-6--6--|-5--5--|-3----|-3----|-----|
|-------|-------|------|------|-----|

Chorus

||-------|------|------|------|--------|--------|--------||
||o-3----|------|------|------|--------|--------|---2---o||
||o------|-5----|-3----|-1----|---01-x-|-3----1-|-3-----o||
||-------|------|------|------|--------|--------|--------||

|-------|------|------|------|-------|------|------|------|
|-3-----|------|------|------|-3-----|------|------|------|
|-----5-|---3--|-1----|-1----|-----5-|---3--|-1----|-1----|
|-------|------|------|------|-------|------|------|------|

|------|------|------|------|-----|-----|
|------|------|------|------|-----|-----|
|------|------|------|------|-----|-----|
|-5----|-5----|-3----|-3----|-----|-----|

Verse

3/4
|--------|--------|
|-3------|--------|
|--------|-5------|
|--------|--------|

2/4
|--------|
|--------|
|-3----0-|
|--------|

|------|--------|--------|-------|-------|-------|-------|-------|
|------|----0---|--------|----2--|-3--2--|-------|-3--2--|-------|
|-1----|-1----1-|-3----1-|-3-----|-------|-5--3--|-------|-5--3--|
|------|--------|--------|-------|-------|-------|-------|-------|

|-------|-------|-------|-------|------|------|------|--------|
|-------|-------|-------|-------|------|------|------|--------|
|-5--5--|-3--3--|-2--2--|-------|------|------|------|------5-|
|-------|-------|-------|-3--5--|-6----|-5----|-3----|-3------|

|--------|-------|-------|------|-----|
|--------|-------|-------|------|-----|
|-6--6-x-|-5--5--|-3--3--|-3----|-----|
|--------|-------|-------|------|-----|

Chorus

||-------|------|------|------|--------|--------|--------||
||o-3----|------|------|------|--------|--------|---2---o||
||o------|-5----|-3----|-1----|---01-x-|-3----1-|-3-----o||
||-------|------|------|------|--------|--------|--------||

|-------|------|--------|------|-------|------|------|------|
|-3-----|------|--------|------|-3-----|------|------|------|
|-----5-|---3--|-1----0-|-1----|-----5-|---3--|-1----|-1----|
|-------|------|--------|------|-------|------|------|------|

|------|-------|------|------|-----|-----|-----|-----|
|------|-------|------|------|-----|-----|-----|-----|
|------|-------|------|------|-----|-----|-----|-----|
|-5----|-5--5--|-3----|-3----|-----|-----|-----|-----|

Verse

3/4
|--------|--------|
|-3------|--------|
|--------|-5------|
|--------|--------|

2/4
|--------|
|--------|
|-3----0-|
|--------|

|------|--------|--------|-------|-------|-------|-------|-------|
|------|----0---|--------|----2--|-3--2--|-------|-3--2--|-------|
|-1----|-1----1-|-3----1-|-3-----|-------|-5--3--|-------|-5--3--|
|------|--------|--------|-------|-------|-------|-------|-------|

|-------|-------|-------|-------|------|------|------|--------|
|-------|-------|-------|-------|------|------|------|--------|
|-5--5--|-3--3--|-2--2--|-------|------|------|------|------5-|
|-------|-------|-------|-3--5--|-6----|-5----|-3----|-3------|

|--------|-------|-------|------|-----|
|--------|-------|-------|------|-----|
|-6--6-x-|-5--5--|-3--3--|-3----|-----|
|--------|-------|-------|------|-----|

Chorus

||-------|------|------|------|--------|--------|--------||
||o-3----|------|------|------|--------|--------|---2---o||
||o------|-5----|-3----|-1----|---01-x-|-3----1-|-3-----o||
||-------|------|------|------|--------|--------|--------||

|-------|-------|------|------|------|--------|------|------|
|-3-----|-------|------|------|-3----|--------|------|------|
|-----5-|---3-x-|-1----|-1----|------|-5----3-|-1----|-1----|
|-------|-------|------|------|------|--------|------|------|

|------|------|------|------|-----|-----|-----|-----|
|------|------|------|------|-----|-----|-----|-----|
|------|------|------|------|-----|-----|-----|-----|
|-5----|-5----|-3----|-3----|-----|-----|-----|-----|

Ending
                                                           4x
||-------|------|------|------|----------|--------|--------||
||o-3----|------|------|------|----------|--------|---2---o||
||o------|-5----|-3----|-1----|---0-1--2-|-3----1-|-3-----o||
||-------|------|------|------|----------|--------|--------||

|------|------|------|------|-----|
|-3----|------|------|------|-----|
|------|-5----|-3----|-1----|-----|
|------|------|------|------|-----|

3/4
|-------|-------*|
|-------|-------*|
|-------|-------*|
|-------|-------*|


------------------
Look Out Cleveland
------------------

160BPM, 4/4

Intro

|---------|---------|---------|----5p3----3p2-|
|---------|---------|---------|-5-------------|
|---------|---------|---------|--------3------|
|---------|---------|---------|---------------|

|----5p3----3p2-|----5----------|
|-5-------------|--5---5--------|
|--------3------|--------3------|
|---------------|----------3-0--|

Chorus

|------------|--------------|-------------|-------------|
|------3-3---|-3-----3------|-2-2---------|-2-----------|
|------------|-----3---3-0--|--------3----|-----0-3-----|
|-1----------|--------------|------3------|---3---------|

|-------------|-------------|----------|----x----------|
|-------2-2---|-3-3---5-5---|----------|--5---5--------|
|-5-5---------|-------------|-3--------|--------3------|
|-------------|-------------|----------|----------3-0--|

|-------------|--------------|-------------|------------|
|------3-3----|-3-----3------|-2-2---------|------------|
|-----------3-|-----3---3-0--|--------3----|----0-3-----|
|-1-----------|--------------|------3------|--3---------|

|-------------|-------------|----------|---------|
|-------2-2---|-3-3---5-5---|----------|---------|
|-5-5---------|-------------|-3--------|---------|
|-------------|-------------|----------|---------|

Verse

|------------|-------------|------------|------------|
|-5--------3h|=5--5-----5--|------------|-------2----|
|------5-----|-------5-----|-3--------2h|=3--3-------|
|------------|-------------|------3-----|------------|

|------------|-------------|------------|--------------|
|-5--------3h|=5--5-----5--|------------|--------------|
|------5-----|-------5-----|-3--------2h|=3---3--5--6--|
|------------|-------------|------3-----|---3----------|

|------------|--------------|-----------|-------------|
|------------|--------6--9--|-7-------5-|-7-7--7--5---|
|-7--------5h|=7---7--------|-----------|-------------|
|------7-----|---7----------|-----------|-------------|

|--------------|-------------|----------|----5----------|
|-3-----3------|-------------|----------|--5---5--------|
|-----3---3-0--|-------2--5--|-3--------|--------3------|
|--------------|-3--3--------|----------|----------3-0--|

Verse

|-------------|--------------|-------------|------------|
|------3-3----|-3-----3------|-2-2---------|------------|
|-----------3-|-----3---3-0--|--------3----|----0-3-----|
|-1-----------|--------------|------3------|--3---------|

|---------------|-------------|----------|----5----------|
|--------2-2-2--|-3-3---5-5---|----------|--5---5--------|
|-5-5-5---------|-------------|-3--------|--------3------|
|---------------|-------------|----------|----------3-0--|

|-------------|--------------|-------------|------------|
|------3-3----|-3-----3------|-2-2---------|------------|
|-----------3-|-----3---3-0--|--------3----|----0-3-----|
|-1-----------|--------------|------3------|--3---------|

|-------------|-------------|----------|---------|
|-------2-2---|-3-3---5-5---|----------|---------|
|-5-5---------|-------------|-3--------|---------|
|-------------|-------------|----------|---------|

Chorus

|------------|-------------|------------|-------------|
|-5--------3h|=5--5-----5--|------------|-------2--3--|
|------5-----|-------5-----|-3--------2h|=3--3--------|
|------------|-------------|------3-----|-------------|

|------------|-------------|------------|-------------|
|-5--------3h|=5--5-----5--|------------|-------------|
|------5-----|-------5-----|-3--------2h|=3--3--5--6--|
|------------|-------------|------3-----|-------------|

|------------|-------------|-----------|-------------|
|------------|-------6--9--|-7-------5-|-7-7--7--5---|
|-7--------5h|=7--7--------|-----------|-------------|
|------7-----|-------------|-----------|-------------|

|---------------|-------------|----------|----5----------|
|-3-3----3------|-------------|----------|--5---5--------|
|------3---3-0--|-------2--5--|-3--------|--------3------|
|---------------|-3---3-------|----------|----------3-0--|

Verse

|-------------|--------------|-------------|------------|
|------3-3----|-3-----3------|-2-2---------|------------|
|-----------3-|-----3---3-0--|--------3----|----0-3-----|
|-1-----------|--------------|------3------|--3---------|

|-------------|-------------|----------|----5----------|
|-------2-2---|-3-3---5-5---|----------|--5---5--------|
|-5-5---------|-------------|-3--------|--------3------|
|-------------|-------------|----------|----------3-0--|

|-------------|--------------|-------------|------------|
|------3-3----|-3-----3------|-2-2---------|------------|
|-----------3-|-----3---3-0--|--------3----|----0-3-----|
|-1-----------|--------------|------3------|--3---------|

|--------------|-------------|----------|---------|
|-------2-2--x-|-3-3---5--5--|----------|---------|
|-5-5----------|-------------|-3--------|---------|
|--------------|-------------|----------|---------|

Chorus

|-------------|-------------|------------|-------------|
|-5\--------3h|=5--5-----5--|------------|-------2--3--|
|-------5-----|-------5-----|-3--------2h|=3--3--------|
|-------------|-------------|------3-----|-------------|

|------------|-------------|------------|--------------|
|-5--------3h|=5--5-----5--|------------|--------------|
|------5-----|-------5-----|-3--------2h|=3---3--5--6--|
|------------|-------------|------3-----|---3----------|

|------------|-------------|-----------|-------------|
|------------|-------6--9--|-7-------5-|-7-7--7--5---|
|-7--------5h|=7--7--------|-----------|-------------|
|------7-----|-------------|-----------|-------------|

|--------------|------------|----------|----5----------|
|-3-----3------|------------|----------|--5---5--------|
|-----3---3-0--|------2h5---|-3--------|--------3------|
|--------------|-3----------|----------|----------3-0--|

Verse

|-------------|--------------|-------------|------------|
|------3-3----|-3-----3------|-2-2---------|------------|
|-----------3-|-----3---3-0--|--------3----|----0-3-----|
|-1-----------|--------------|------3------|--3---------|

|--------------|-------------|----------|----5----------|
|-------2-2--x-|-3-3---5-5---|----------|--5---5--------|
|-5-5----------|-------------|-3--------|--------3------|
|--------------|-------------|----------|----------3-0--|

|-------------|--------------|-------------|------------|
|------3-3----|-3-----3------|-2-2---------|------------|
|-----------3-|-----3---3-0--|--------3----|----0-3-----|
|-1-----------|--------------|------3------|--3---------|

|--------------|-------------|------| *last bar 2/4
|-------2-2--x-|-3-3---5-5---|------|
|-5-5----------|-------------|-3----|
|--------------|-------------|------|

Coda

|----5p3----3p2-|----5p3----3p2-|----5p3----3p2-|----5p3----3p2-|
|-5-------------|-5-------------|-5-------------|-5-------------|
|--------3------|--------3------|--------3------|--------3------|
|---------------|---------------|---------------|---------------|

|----5p3----3p2-|----5p3----3p2-|----5p3----3p2-|----------*|
|-5-------------|-5-------------|-5-------------|----------*|
|--------3------|--------3------|--------3------|-3--------*|
|---------------|---------------|---------------|----------*|


-------
Jawbone
-------

6/4

Intro (slow)

|-------------|---------------|--------------|
|-------------|---------------|--------------|
|-------------|-5------4------|--------------|
|-------------|---------------|-0------------|

|-------------|---------------|-----------------|
|-------------|-1-------------|-2---------------|
|-------------|--------4------|-----5---4---2-4-|
|-------------|---------------|-----------------|

Verse

84BPM

|-----------------------|---------------------|
|-------4---4-5--5-4--4-|-2--2----------------|
|-5---5---5-------------|------3--3-0---0-2-4-|
|---5-------------------|---------------------|

|-----------------------|-----------------4-----|
|-------4---4-5--5-4--4-|-2--2------------------|
|-5---5---5-------------|------3--3-0--0---x2---|
|---5-------------------|-----------------------|

Chorus

176BPM, 4/4

||----------------|----------------|------9--9-------|-9-------9-------|
||o----------9----|-9-11-11--11----|-9h11-------9h11-|----9h11----9h11-|
||o-7-----11---11-|----------------|-----------------|-----------------|
||----------------|----------------|-----------------|-----------------|

|-9--9--13-16----||
|---------------o||
|---------------o||
|----------------||

|---------------|----------------|------9--9-------|-9--------------|
|----------9----|-9-11-11--11----|-9h11-------9h11-|----11--9-------|
|-7-----11---11-|----------------|-----------------|----------11-9--|
|---------------|----------------|-----------------|----------------|

2/4

|------|
|------|
|-7----|
|------|

Bridge

116BPM, 6/4

|--------------------|---------------------|---------------------|
|--------------------|---------------------|---------------------|
|-----------1--1-----|-2--2-5--2-4--2-4--2-|-----------4--4------|
|-2--2-2--2--------2-|---------------------|-0--0-0--4------4--0-|

|---------------------|---------------------|-----------------|
|---------------------|-------------------2-|-2---------------|
|-----------1----1--4-|-2--2-5--2-4--2-4----|-----5---4---2-4-|
|-2--2-2--2----2------|---------------------|-----------------|

Verse

84BPM

|-----------------------|---------------------|
|-------4---4-5--5-4--4-|-2--2----------------|
|-5---5---5-------------|------3--3-0---0-2-4-|
|---5-------------------|---------------------|

|-----------------------|-----------------4----|
|-------4---4-5--5-4--4-|-2--2-----------------|
|-5---5---5-------------|------3--3-0--0---2---|
|---5-------------------|----------------------|

Chorus

176BPM, 4/4

||----------------|----------------|------9--9-------|-9-------9-------|
||o----------9----|-9-11-11--11----|-9h11-------9h11-|----9h11----9h11-|
||o-7-----11---11-|----------------|-----------------|-----------------|
||----------------|----------------|-----------------|-----------------|

|-9--9--13-16----||
|---------------o||
|---------------o||
|----------------||

|---------------|----------------|------9--9-------|-9--------------|
|----------9----|-9-11-11--11----|-9h11-------9h11-|----11--9-------|
|-7-----11---11-|----------------|-----------------|----------11-9--|
|---------------|----------------|-----------------|----------------|

2/4

|------|
|------|
|-7----|
|------|

Bridge

120BPM, 6/4

|----------------|----------------|----------------|-----------------|
|-----------0----|----------------|------0---------|-2---------------|
|------1---------|-4--------------|-1---------4----|-----5---4---2-4-|
|-2--------------|------0----2----|----------------|-----------------|

Verse

84BPM

|-----------------------|---------------------|
|-------4---4-5--5-4--4-|-2--2----------------|
|-5---5---5-------------|------3--3-0---0-2-4-|
|---5-------------------|---------------------|

|-----------------------|-----------------4----|
|-------4---4-5--5-4--4-|-2--2-----------------|
|-5---5---5-------------|------3--3-0--0---2---|
|---5-------------------|----------------------|

Chorus

176BPM, 4/4

||----------------|----------------|------9--9-------|-9-------9-------|
||o----------9----|-9-11-11--11----|-9h11-------9h11-|----9h11----9h11-|
||o-7-----11---11-|----------------|-----------------|-----------------|
||----------------|----------------|-----------------|-----------------|

|-9--9--13-16----||
|---------------o||
|---------------o||
|----------------||

|---------------|----------------|----------|----------------|
|----------9----|-9-11-11--11----|-9--------|---11--9--------|
|-7-----11---11-|----------------|----------|---------11-9---|
|---------------|----------------|----------|----------------|

Solo

168BPM

|---------------|-------------|--------------|----------4--|
|---------------|-------------|--------------|-------6-----|
|-7---7-7-4---7-|--x-7--------|-7--7---4---7-|--x-7--------|
|-----------7---|-------4--7--|----------7---|-------------|

|---------------|--------------|---------------|--------------|
|---------------|--------------|-------------9-|---9----------|
|-7--7--7-4---7-|----------4---|-7--7--7-4-----|------9-7-----|
|-----------7---|--0-4--7----7-|-----------7---|----------9-7-|

|---------------|--------------|-------------6-|---6--3---3--|
|---------------|--------------|-------3---6---|--------6----|
|-4--4--4-----4-|--------------|-4--4----4-----|-------------|
|---------7-4---|--0-2--4--7-4-|---------------|-------------|

|--------------|-------------|-------------|-----------3--|
|--------------|-------3--6--|-------------|---3----6-----|
|-4--4-------4-|----4--------|-4---4-4-4---|-4---4--------|
|--------6-4---|--4----------|-------------|--------------|

Bridge

126BPM, 6/4

|-----------------|------------------|------------------|
|---4-------------|--------------2-2-|--2------2--------|
|----------1--1---|-5-5---42-2-4-----|------424-42------|
|-2---2-2---2---2-|------------------|-------------4-0--|

|------------------|------------------|-------------------|
|------------------|--------------2---|-2-2---------------|
|-------1--1/4-1---|-2-2---42-2-4---4-|------5-5--4---2-4-|
|-2-2-4----------2-|------------------|-------------------|

Verse

84BPM

|-----------------------|---------------------|
|-------4---4-5--5-4--4-|-2--2----------------|
|-5---5---5-------------|------3--3-0---0-2-4-|
|---5-------------------|---------------------|

|-----------------------|-----------------4----|
|-------4---4-5--5-4--4-|-2--2-----------------|
|-5---5---5-------------|------3--3-0--0---2---|
|---5-------------------|----------------------|

Chorus

176BPM, 4/4

||----------------|----------------|------9--9-------|-9-------9-------|
||o----------9----|-9-11-11--11----|-9h11-------9h11-|----9h11----9h11-|
||o-7-----11---11-|----------------|-----------------|-----------------|
||----------------|----------------|-----------------|-----------------|

|-9--9--13-16----||
|---------------o||
|---------------o||
|----------------||

|---------------|----------------|------9--9-------|-9-------------*|
|----------9----|-9-11-11--11----|-9h11-------9h11-|----11p9-------*|
|-7-----11---11-|----------------|-----------------|---------7-----*|
|---------------|----------------|-----------------|---------------*|
                                  slows down here


----------------------
The Unfaithful Servant
----------------------

100BPM, 4/4

Intro

|-----------|
|-----------|
|-----------|
|-2----4----|

Verse

|-----------|-----------|-----------|-----------|
|-----------|-----------|-----------|-----------|
|-----------|-----------|-----------|-2----5----|
|-5----5----|-4----4----|-2----2----|-----------|

|-----------|-----------|-----------|----------|
|-----------|-----------|-----------|----------|
|-----------|-----------|-----------|-2--------|
|-5----5----|-4----4----|-2----2----|----------|

|-----------|-----------|-----------|-----------|
|-----------|-----------|-----------|-----------|
|-----------|-----------|-----------|-2----5----|
|-5----5----|-4----4----|-2----2----|-----------|

|-----------|-----------|-----------|-----------|
|-----------|-----------|-----------|-----------|
|-----------|-----------|-----------|-2----2----|
|-5----5----|-4----4----|-2----2----|-----------|

|-----------|-----------|-----------|------------|
|-----------|-----------|-----------|------------|
|-4----4----|-----------|-----------|---------2--|
|-----------|-4----4----|-2----2----|-0----4-----|

|-----------|------------|-----------|-----------|
|-----------|------------|-----------|-----------|
|-4----4----|-2----7--4--|-1----1----|-----------|
|-----------|------------|-----------|-2----2----|

|----------|
|----------|
|----------|
|-1--------|

Verse

|-----------|-----------|-----------|-----------|
|-----------|-----------|-----------|-----------|
|-----------|-----------|-----------|-2----5----|
|-5----5----|-4----4----|-2----2----|-----------|

|-----------|-----------|-----------|-----------|
|-----------|-----------|-----------|-----------|
|-----------|-----------|-----------|-2----2----|
|-5----5----|-4----4----|-2----2----|-----------|

|-----------|-----------|-----------|-----------|
|-----------|-----------|-----------|-----------|
|-----------|-----------|-----------|-2----5----|
|-5----5----|-4----4----|-2----2----|-----------|

|-----------|-----------|-----------|-----------|
|-----------|-----------|-----------|-----------|
|-----------|-----------|-----------|-2----2----|
|-5----5----|-4----4----|-2----2----|-----------|

|-----------|-----------|-----------|------------|
|-----------|-----------|-----------|------------|
|-4----4----|-----------|-----------|---------2--|
|-----------|-4----4----|-2----2----|-0----4-----|

|-----------|------------|-----------|-----------|
|-----------|------2-----|-----------|-----------|
|-4----4----|-2-------2--|-1----1----|-----------|
|-----------|------------|-----------|-2----2----|

|----------|
|----------|
|----------|
|-1--------|

Verse

|-----------|-----------|-----------|-----------|
|-----------|-----------|-----------|-----------|
|-----------|-----------|-----------|-2----5----|
|-5----5----|-4----4----|-2----2----|-----------|

|-----------|-----------|-----------|----------|
|-----------|-----------|-----------|----------|
|-----------|-----------|-----------|-2--------|
|-5----5----|-4----4----|-2----2----|----------|

|-----------|-----------|-----------|-----------|
|-----------|-----------|-----------|-----------|
|-----------|-----------|-----------|-2----5----|
|-5----5----|-4----4----|-2----2----|-----------|

|-----------|-----------|-----------|-----------|
|-----------|-----------|-----------|-----------|
|-----------|-----------|-----------|-2----2----|
|-5----5----|-4----4----|-2----2----|-----------|

|-----------|-----------|-----------|------------|
|-----------|-----------|-----------|------------|
|-4----4----|-----------|-----------|---------2--|
|-----------|-4----4----|-2----2----|-0----4-----|

|-----------|------------|-----------|-----------|
|-----------|------------|-----------|-----------|
|-4----4----|-2----7--4--|-1----1----|-----------|
|-----------|------------|-----------|-2----2----|

|----------|
|----------|
|----------|
|-1--------|

Solo

|---------------|-------------|-------------|---------------|
|---------------|-------------|-------------|------------2--|
|---------4-7-x-|-------7-----|-------------|-2--2--2-4-----|
|-5---0-5-------|-4---7---0---|-2----2----5-|---------------|

|---------------|-------------|--------------|--------------|
|---------------|-------------|--------------|--------------|
|---------4-7-x-|-------7-----|--------------|--------------|
|-5---0-5-------|-4---7----0--|-2---0-2----5-|-7--7-5-/7----|

|--------------|--------------|-------------|-------------|
|--------------|--------------|-------------|-------------|
|--------4-7---|-------7------|-------------|-2-----2--7--|
|-5----5-----5-|-4---7---7-0--|-2----2----5-|-----5-------|

|--------------|--------------|--------------|----------------|
|--------------|--------------|--------------|----------------|
|---------4-7--|-------7------|--------------|-2--2---2-/4-2--|
|-5---0-5------|-4---7---7-0--|-2---0-2----5-|------5---------|

Ending

|-----------|-----------|-----------|-----------|
|-----------|-----------|-----------|-----------|
|-4----4----|-----------|-----------|-----------|
|-----------|-4----4----|-2----2----|-0----4----|

|-----------|------------|-----------|-----------|
|-----------|------2-----|-----------|-----------|
|-4----4----|-2-------2--|-1----1----|-----------|
|-----------|------------|-----------|-2----2----|

|----------*|
|----------*|
|----------*|
|-1--------*|


------------------------------
King Harvest (Has Surely Come)
------------------------------

200BPM, 4/4

Intro

|---------|---------|---------|---------|
|---------|---------|---------|---------|
|---------|---------|---------|---------|
|---------|---------|---------|---------|

Chorus

|----------|----------|----------|-----------|
|----------|----------|----------|-----------|
|-3--------|-1--------|----------|-6----5----|
|----------|----------|-4--------|-----------|

|----------|---------|----------|----------|
|----------|---------|-7--------|-6--------|
|-3--------|---------|----------|----------|
|----------|---------|----------|----------|

|-----------|
|-5---------|
|-----------|
|---------3h|

Verse

|-----------|------------|-----------|------------|
|-----------|------------|-----------|------------|
|-----------|------------|-----------|----------0h|
|-5-------3h|-5--5-----1h|-3-------1h|-3--3-------|

|-----------|------------|-----------|--------------|
|-----------|------------|-----------|--------------|
|-1---------|----------2h|-3-------2h|-3-3--3-------|
|---------0h|-1--1-------|-----------|---------5p3--|

|-----------|------------|-----------|------------|
|-----------|------------|-----------|------------|
|-----------|------------|-----------|----------3h|
|-5-------3h|-5--5-----0h|-1-------0h|-1--1-------|

|-----------|------------|-----------|--------------|
|-----------|------------|-----------|--------------|
|-5-------3h|-5--5-----6h|-7-------6h|-7---6h7-x-5--|
|-----------|------------|-----------|--------------|

|-------------|-------------|------------|-----------|
|-------------|-------------|------------|-----------|
|-------------|----------3--|---3--------|-----------|
|-5--3--5--5--|-6--5--6-----|--------3-3-|-1----3----|

|-------------|-------------|-----------|-----------|
|-------------|-------------|-----------|-----------|
|-------------|----------3--|---3-------|-----------|
|-5--3--5--5--|-6--5--6-----|--------3--|-1----3----|

|-------------|-------------|------------|------------|
|-------------|-------------|------------|------------|
|-------------|----------3--|---3--------|------------|
|-5--3--5--5--|-6--5--6-----|--------3-3-|-1-1---3----|

|--------------|-------------|------------|------------|
|--------------|-------------|------------|------------|
|--------------|----------3--|---3--------|------------|
|-5--3--5--5-5-|-6--5--6-----|--------3-3-|-1-1---3----|

|-----------|-----------|
|-----------|-----------|
|-----------|-----------|
|-5----3----|-6----1----|

Chorus

|----------|----------|----------|-----------|
|----------|----------|----------|-----------|
|-3--------|-1--------|----------|-6----5----|
|----------|----------|-4--------|-----------|

|----------|---------|----------|----------|
|----------|---------|-7--------|-6--------|
|-3--------|---------|----------|----------|
|----------|---------|----------|----------|

|-----------|
|-5---------|
|-----------|
|---------3h|

Verse

|-----------|------------|-----------|------------|
|-----------|------------|-----------|------------|
|-----------|------------|-----------|----------0h|
|-5-------3h|-5--5-----1h|-3-------1h|-3--3-------|

|-----------|------------|-----------|------------|
|-----------|------------|-----------|------------|
|-1---------|----------2h|-3-------2h|-3--3-------|
|---------0h|-1--1-------|-----------|----------3h|

|-----------|------------|-----------|------------|
|-----------|------------|-----------|------------|
|-----------|------------|-----------|----------3h|
|-5-------3h|-5--5-----0h|-1-------0h|-1--1-------|

|-----------|------------|-----------|--------------|
|-----------|------------|-----------|--------------|
|-5-------3h|-5--5-----6h|-7-------6h|-7---6h7-6h7--|
|-----------|------------|-----------|--------------|

|-------------|--------------|------------|------------|
|-------------|--------------|------------|------------|
|-------------|-----------3--|---3--------|------------|
|-5--3--5--5--|-6-6-5--6-----|--------3-3-|-1-1---3----|

|--------------|-------------|--------5----|-----------|
|--------------|-------------|-------------|-----------|
|--------------|----------3--|---3--x------|-----------|
|-5--3--5--5-5-|-6--5--6-----|-------------|-1----3----|

|-------------|-------------|------------|------------|
|-------------|-------------|------------|------------|
|-------------|----------3--|---3--------|------------|
|-5--3--5--5--|-6--5--6-----|--------3-3-|-1--1--3----|

|--------------|-------------|--------5----|-----------|
|--------------|-------------|-------------|-----------|
|--------------|----------3--|---3--x------|-----------|
|-5--3--5--5-5-|-6--5--6-----|-------------|-1----3----|

|-----------|-----------|
|-----------|-----------|
|-----------|-----------|
|-5----3----|-6----1----|

Chorus

|----------|----------|----------|-----------|
|----------|----------|----------|-----------|
|-3--------|-1--------|----------|-6----5----|
|----------|----------|-4--------|-----------|

|----------|---------|----------|----------|
|----------|---------|-7--------|-6--------|
|-3--------|---------|----------|----------|
|----------|---------|----------|----------|

|----------|
|-5--------|
|----------|
|----------|

Verse

|-----------|------------|-----------|------------|
|-----------|------------|-----------|------------|
|-----------|------------|-----------|----------0h|
|-5-------3h|-5--5-----1h|-3-------1h|-3--3-------|

|-----------|------------|-----------|--------------|
|-----------|------------|-----------|--------------|
|-1---------|----------2h|-3-------2h|-3-3--3-------|
|---------0h|-1--1-------|-----------|---------5p3--|

|-----------|------------|-----------|------------|
|-----------|------------|-----------|------------|
|-----------|------------|-----------|----------3h|
|-5-------3h|-5--5-----0h|-1-------0h|-1--1-------|

|-----------|------------|-----------|--------------|
|-----------|------------|-----------|--------------|
|-5-------3h|-5--5-----6h|-7-------6h|-7---6h7-6h7--|
|-----------|------------|-----------|--------------|

|-------------|-------------|--------5----|-----------|
|-------------|-------------|-------------|-----------|
|-------------|----------3--|---3--x------|-----------|
|-5--3--5--5--|-6--5--6-----|-------------|-1----3----|

|--------------|-------------|------------|------------|
|--------------|-------------|------------|------------|
|--------------|----------3--|---3--------|------------|
|-5--3--5--5-5-|-6--5--6-----|--------3-3-|-1-1---3----|

|--------------|-------------|--------5----|-----------|
|--------------|-------------|-------------|-----------|
|--------------|----------3--|---3--x------|-----------|
|-5--3--5--5-5-|-6--5--6-----|-------------|-1----3----|

|-------------|-------------|------------|------------|
|-------------|-------------|------------|------------|
|-------------|----------3--|---3--------|------------|
|-5--3--5--5--|-6--5--6-----|--------3-3-|-1--1--3----|

|-----------|-----------|
|-----------|-----------|
|-----------|-----------|
|-5----3----|-6----1----|

Chorus

|----------|----------|----------|-----------|
|----------|----------|----------|-----------|
|-3--------|-1--------|----------|-6----5----|
|----------|----------|-4--------|-----------|

|----------|---------|----------|----------|
|----------|---------|-7--------|-6--------|
|-3--------|---------|----------|----------|
|----------|---------|----------|----------|

|-----------|
|-5---------|
|-----------|
|---------3h|

Solo

|-----------|------------|-----------|------------|
|-----------|------------|-----------|------------|
|-----------|------------|-----------|----------0h|
|-5-------3h|-5--5-----1h|-3-------1h|-3--3-------|

|-----------|------------|------------|--------------|
|-----------|------------|------------|--------------|
|-1---------|----------2h|-3-----3--3-|-------3-3----|
|---------0h|-1--1-------|------------|--5p3------3--|

|-----------|------------|-----------|-------------|
|-----------|------------|-----------|-------------|
|-----------|------------|-----------|----------3--|
|-5-------3h|-5--5-----0h|-1-------0h|-1--1--5-----|

|-----------|------------|-----------|---------------|
|-----------|------------|-----------|---------------|
|-5-------3h|-5--5-----6h|-7-------6h|-7-7--6h7-6h7--|
|-----------|------------|-----------|---------------|

|--------------|--------------|------------|------------|
|--------------|--------------|------------|------------|
|--------------|-----------3--|---3--------|------------|
|-5--3--5--5-5-|-6--5-5-6-----|--------3-3-|-1-1---3----|

|--------------|-------------|--------5-----|-----------|
|--------------|-------------|--------------|-----------|
|--------------|----------3--|---3--x----3--|-----------|
|-5--3--5--5-5-|-6--5--6-----|--------------|-1----3----|

|-------------|-------------|------------|------------|
|-------------|-------------|------------|------------|
|-------------|----------3--|---3--------|------------|
|-5--3--5--5--|-6--5--6-----|--------3-3-|-1--1--3----|

|-------------|-------------|-----------|------------|
|-------------|-------------|-----------|------------|
|-------------|----------3--|-----------|------------|
|-5--3--5--5--|-6--5--x-----|-------3-3-|-1--1--3----|

|-----------|-----------|----------*|
|-----------|-----------|----------*|
|-----------|-----------|----------*|
|-5----3----|-6----1----|-8--------*|



-------------
Tabbed by Gabriel Wilson (199X) using Powertab Editor.
I make no money from the writing of this tab.
comments
We did not receive enough feedback on this tab! Please rate:
print report bad tab
1 2 3 4 5
I want to post or [tab]
guest
You may want to rate the tab now too:
select rating
Please do not post tabs as comments. Select "correction" instead!