Oops, an error
Loading. Please wait.

Umbrella Bass Tab

ver2
ver2

Whole song

Interactive

More versions @911Tabs.com
7,129 views 18 this week
2 commentsread comments
1 2 3 4 5
accurate
x 7
add to favorites launch autoscroll
font size
0
reset
Autoscroll
+/-
esc
set tempo
stop
Contributor
Difficulty
intermediate
WARNING: You are trying to view
                                    content from Ultimate-Guitar.com
                                    in an unauthorized application,
                                    which is prohibited.

                                    Please use an official Ultimate
                                    Guitar Tabs application for iPhone,
                                    iPad or Android to access legitimate
                                    chords, guitar, bass, and drum tabs
                                    from Ultimate-Guitar.com database.

                                    Type "ultimate guitar tabs" in Apple
                                    App Store's or Android Market's
                                    search to find the application.
Enjoy!


Intro

|----------------|----------------|----------------|-------------------|
|----------------|----------------|----------------|-------------------|
|--6-------------|----------------|--4h5-----------|-------------------|
|----------------|-5h6------------|----------------|--2h3--------------|


|----------------|----------------|----------------|----------------| X 2-|
|----------------|----------------|----------------|----------------------|
|-5h6-------------|----------------|--4h5-----------|---------------------|
|----------------|-5h6------------|----------------|--2h3-----------------|

Pre-chorus (only after the intro)

|----------------|
|----------------|
|--------5-5-4---|
|-3---6--------6-|

Chorus

|-------5-8-5----|----------------|-------5-7-5----|----------------| X 2
|---5-8-------8-5|-------5-8-5----|---4-7-------7-4|-------3-5-3----|
|-6--------------|---5-8-------8-5|-5--------------|-----5-------5--|
|----------------|-6--------------|----------------|-3-6-----------6|

|-------5-8-5----|----------------|-------5-7-5----|----------------|
|---5-8-------8-5|-------5-8-5----|---4-7-------7-4|----------3--5--|
|-6--------------|---5-8-------8-5|-5--------------|-------5--------|
|----------------|-6--------------|----------------|-3--6-----------|


Verse

|----------------|----------------|----------------|----------------| X 2
|----5--8--8-7-5-|----------------|----4--7--7-7-4-|----------------|
|-6--------------|----5--8--8-7-5-|-5--------------|--------5-5-4---|
|----------------|-6--------------|----------------|-3---6--------6-|

Chorus

|-------5-8-5----|----------------|-------5-7-5----|----------------| X 2
|---5-8-------8-5|-------5-8-5----|---4-7-------7-4|-------3-5-3----|
|-6--------------|---5-8-------8-5|-5--------------|-----5-------5--|
|----------------|-6--------------|----------------|-3-6-----------6|

|-------5-8-5----|----------------|-------5-7-5----|---------------------|
|---5-8-------8-5|-------5-8-5----|---4-7-------7-4|----------3--5-5-3---|
|-6--------------|---5-8-------8-5|-5--------------|-------5------------6|
|----------------|-6--------------|----------------|-3--6----------------|

Bridge (Bit unsure about this part)


|----------------|----------------|----------------|---------------------|
|----------------|----------------|----------------|---------------------|
|--6-------------|-6--------------|-5--------------|---------------------|
|----------------|----------------|----------------|---------------------|

|----------------|----------------|----------------|---------------------|
|----------------|----------------|----------------|---8-7-5-------------|
|-6--------------|-6--------------|--6-6-666-------|---------8-6---------|
|----------------|----------------|----------------|---------------------|

Chorus

|-------5-8-5----|----------------|-------5-7-5----|----------------| X 2
|---5-8-------8-5|-------5-8-5----|---4-7-------7-4|-------3-5-3----|
|-6--------------|---5-8-------8-5|-5--------------|-----5-------5--|
|----------------|-6--------------|----------------|-3-6-----------6|

|-------5-8-5----|----------------|-------5-7-5----|---------------------|
|---5-8-------8-5|-------5-8-5----|---4-7-------7-4|----------3--5-5-3---|
|-6--------------|---5-8-------8-5|-5--------------|-------5------------6|
|----------------|-6--------------|----------------|-3--6----------------|

Break

|----------------|----------------|----------------|-------------------|
|----------------|----------------|----------------|-------------------|
|-5h6-------------|----------------|--4h5-----------|------------------|
|----------------|-5h6------------|----------------|--2h3--------------|


Chorus

|-------5-8-5----|----------------|-------5-7-5----|----------------| X 4
|---5-8-------8-5|-------5-8-5----|---4-7-------7-4|-------3-5-3----|
|-6--------------|---5-8-------8-5|-5--------------|-----5-------5--|
|----------------|-6--------------|----------------|-3-6-----------6|


Outro


|-------------------|
|-------------------|
|-------------------|
|-3---3----3--------|
comments
print report bad tab
2 comments total.
0 reply
NicoB wrote on September 20 2011, 04:54 am

Can't understand the bad rating.
Great tab. Just listen closely, you'll hear, it's quite right!

0 reply
diracster wrote on February 1 2012, 07:55 am

This tab is great.
Thanks

I want to post or [tab]
guest
You may want to rate the tab now too:
select rating
Please do not post tabs as comments. Select "correction" instead!