Oops, an error
Loading. Please wait.

Goodnight Tab

ver1
ver1

Whole song

Interactive

More versions @911Tabs.com
1,395 views 9 this week
2 commentsread comments
1 2 3 4 5
excellent!
x 2
Autoscroll
+/-
esc
set tempo
stop
Contributor
Difficulty
Tuning
intermediate
D A D G B E
Hey! There's an official Ultimate Guitar app which is ideal
for learning songs when you're away from computer. Get the app
WARNING: You are trying to view
                                    content from Ultimate-Guitar.com
                                    in an unauthorized application,
                                    which is prohibited.

                                    Please use an official Ultimate
                                    Guitar Tabs application for iPhone,
                                    iPad or Android to access legitimate
                                    chords, guitar, bass, and drum tabs
                                    from Ultimate-Guitar.com database.

                                    Type "ultimate guitar tabs" in Apple
                                    App Store's or Android Market's
                                    search to find the application.
 This is the 1st tab i've ever made and its of my favorite band and my most
 favorite song. Got bothered not seeing any on here so thought i'd give it
 a shot. I'm aware Rainbow plays DADDAD tuning but that shouldnt realy
 matter when playing this. It's not totally complete I think but comes
 pretty close. Enjoy ;)


Chorus

M. Falcore

E ------------------------------------------------------------------------|
B -----15-14----------12-------15-14----------12-------15-14----------12--|
G -----------14-12-11----------------14-12-11----------------14-12-11-----|
D ---14------------------12-14-------------------12-14--------------------|
A ------------------------------------------------------------------------|
D ------------------------------------------------------------------------|

E -------------------------------------------------|
B -------15-14----------12-------15-14----------12-|
G -11---------14-12-11----------------14-12-11-----|
D ----12-------------------12-14-------------------|
A -------------------------------------------------|
D -------------------------------------------------|

E -------------------------------------------------|
B -------15-14----------12-------15-14----------12-|
G -------------14-12-11----------------14-12-11----|
D -12-14-------------------12-14-------------------|
A -------------------------------------------------|
D -------------------------------------------------|

E -------------------------------------------------------------------------------|
B -------15-14----------12-------15-14----------12-------15-14----------12-------|
G ----11-------14-12-11------12--------14-12-11----------------14-12-11----------|
D -12---------------------12----------------------12-14--------------------12-14-|
A -------------------------------------------------------------------------------|
D -------------------------------------------------------------------------------|

Rainbow

E ---------------------------------------------------------------------------|
B ---------------------------------------------------------------------------|
G ---------------------------------------------------------------------------|
D -22222222222222222222222222222777777779999999555555555555555777777799999999|
A -22222222222222222222222222222777777779999999555555555555555777777799999999|
D -22222222222222222222222222222777777779999999555555555555555777777799999999|

E ----------------------------------------------------------------------------|
B ----------------------------------------------------------------------------|
G ----------------------------------------------------------------------------|
D -222222222222222222222222222229999999977777777555555555555557777777999999992|
A -222222222222222222222222222229999999977777777555555555555557777777999999992|
D -222222222222222222222222222229999999977777777555555555555557777777999999992|


+++++++++++++++++++++++++++++++

Verse:

M. Falcore

E ---------------------------------------------------------------------------|
B -17-----12-----15----10----13----12------------------17-----12-------------|
G ----------------------------------------14----12------------------12---11--|
D ---------------------------------------------------------------------------|
A ---------------------------------------------------------------------------|
D ---------------------------------------------------------------------------|

+++++++++++++++++++++++++++++++

Chorus

M. Falcore

E ------------------------------------------------------------------------|
B -----15-14----------12-------15-14----------12-------15-14----------12--|
G -----------14-12-11----------------14-12-11----------------14-12-11-----|
D ---14------------------12-14-------------------12-14--------------------|
A ------------------------------------------------------------------------|
D ------------------------------------------------------------------------|

E -------------------------------------------------|
B -------15-14----------12-------15-14----------12-|
G -11---------14-12-11----------------14-12-11-----|
D ----12-------------------12-14-------------------|
A -------------------------------------------------|
D -------------------------------------------------|

E -------------------------------------------------|
B -------15-14----------12-------15-14----------12-|
G -------------14-12-11----------------14-12-11----|
D -12-14-------------------12-14-------------------|
A -------------------------------------------------|
D -------------------------------------------------|

E -------------------------------------------------------------------------------|
B -------15-14----------12-------15-14----------12-------15-14----------12-------|
G ----11-------14-12-11------12--------14-12-11----------------14-12-11----------|
D -12---------------------12----------------------12-14--------------------12-14-|
A -------------------------------------------------------------------------------|
D -------------------------------------------------------------------------------|

Rainbow

E ---------------------------------------------------------------------------|
B ---------------------------------------------------------------------------|
G ---------------------------------------------------------------------------|
D -22222222222222222222222222222777777779999999555555555555555777777799999999|
A -22222222222222222222222222222777777779999999555555555555555777777799999999|
D -22222222222222222222222222222777777779999999555555555555555777777799999999|

E ----------------------------------------------------------------------------|
B ----------------------------------------------------------------------------|
G ----------------------------------------------------------------------------|
D -222222222222222222222222222229999999977777777555555555555557777777999999992|
A -222222222222222222222222222229999999977777777555555555555557777777999999992|
D -222222222222222222222222222229999999977777777555555555555557777777999999992|


+++++++++++++++++++++++++++++++

Verse:

M. Falcore

E ---------------------------------------------------------------------------|
B -17-----12-----15----10----13----12------------------17-----12-------------|
G ----------------------------------------14----12------------------12---11--|
D ---------------------------------------------------------------------------|
A ---------------------------------------------------------------------------|
D ---------------------------------------------------------------------------|

+++++++++++++++++++++++++++++++

Chorus

M. Falcore

E ------------------------------------------------------------------------|
B -----15-14----------12-------15-14----------12-------15-14----------12--|
G -----------14-12-11----------------14-12-11----------------14-12-11-----|
D ---14------------------12-14-------------------12-14--------------------|
A ------------------------------------------------------------------------|
D ------------------------------------------------------------------------|

E -------------------------------------------------|
B -------15-14----------12-------15-14----------12-|
G -11---------14-12-11----------------14-12-11-----|
D ----12-------------------12-14-------------------|
A -------------------------------------------------|
D -------------------------------------------------|

E -------------------------------------------------|
B -------15-14----------12-------15-14----------12-|
G -------------14-12-11----------------14-12-11----|
D -12-14-------------------12-14-------------------|
A -------------------------------------------------|
D -------------------------------------------------|

E -------------------------------------------------------------------------------|
B -------15-14----------12-------15-14----------12-------15-14----------12-------|
G ----11-------14-12-11------12--------14-12-11----------------14-12-11----------|
D -12---------------------12----------------------12-14--------------------12-14-|
A -------------------------------------------------------------------------------|
D -------------------------------------------------------------------------------|

Rainbow

E ---------------------------------------------------------------------------|
B ---------------------------------------------------------------------------|
G ---------------------------------------------------------------------------|
D -22222222222222222222222222222777777779999999555555555555555777777799999999|
A -22222222222222222222222222222777777779999999555555555555555777777799999999|
D -22222222222222222222222222222777777779999999555555555555555777777799999999|

E ----------------------------------------------------------------------------|
B ----------------------------------------------------------------------------|
G ----------------------------------------------------------------------------|
D -222222222222222222222222222229999999977777777555555555555557777777999999992|
A -222222222222222222222222222229999999977777777555555555555557777777999999992|
D -222222222222222222222222222229999999977777777555555555555557777777999999992|


+++++++++++++++++++++++++++++++

M. Falcore
                     r~~~~~~~r~~~~~~r~~~~~~r~~~~~~r~~~~~r~~~~~~~r~~~~~r~~~~~
E --------------------------------------------------------------------------|
B --------------------------------------------------------------------------|
G --------------------------------------------------------------------------|
D -------------------0------10------2------5------0-----10------2-----0-----|
A -------------------0------10------2------5------0-----10------2-----0-----|
D -------------------0------10------2------5------0-----10------2-----0-----|

Rainbow
   m       m      mm r~~~~~~~r~~~~~~r~~~~~~r~~~~~~r~~~~~r~~~~~~~r~~~~~r~~~~~
E --------------------------------------------------------------------------|
B --------------------------------------------------------------------------|
G --------------------------------------------------------------------------|
D -2-------2------22-0------10------2------5------0-----10------2-----0-----|
A -2-------2------22-0------10------2------5------0-----10------2-----0-----|
D -2-------2------22-0------10------2------5------0-----10------2-----0-----|

+++++++++++++++++++++++++++++++

Rainbow


   m m m m mm m mmm m m m m mm m mm m m m m mm m mm m m mm m m m m m mm m m m m m m
E ----------------------------------------------------------------------------------|
B ----------------------------------------------------------------------------------|
G ----------------------------------------------------------------------------------|
D -2-2-2-2-22-2-222-7-7-7-9-55-5-55-7-7-7-9-22-2-22-2-2-22-9-9-9-7-5-55-7-7-7-9-9-9-|
A -2-2-2-2-22-2-222-7-7-7-9-55-5-55-7-7-7-9-22-2-22-2-2-22-9-9-9-7-5-55-7-7-7-9-9-9-|
D -2-2-2-2-22-2-222-7-7-7-9-55-5-55-7-7-7-9-22-2-22-2-2-22-9-9-9-7-5-55-7-7-7-9-9-9-|

+++++++++++++++++++++++++++++++

Chorus

M. Falcore

E ------------------------------------------------------------------------|
B -----15-14----------12-------15-14----------12-------15-14----------12--|
G -----------14-12-11----------------14-12-11----------------14-12-11-----|
D ---14------------------12-14-------------------12-14--------------------|
A ------------------------------------------------------------------------|
D ------------------------------------------------------------------------|

E -------------------------------------------------|
B -------15-14----------12-------15-14----------12-|
G -11---------14-12-11----------------14-12-11-----|
D ----12-------------------12-14-------------------|
A -------------------------------------------------|
D -------------------------------------------------|

E -------------------------------------------------|
B -------15-14----------12-------15-14----------12-|
G -------------14-12-11----------------14-12-11----|
D -12-14-------------------12-14-------------------|
A -------------------------------------------------|
D -------------------------------------------------|
                                                                              r~~
E -------------------------------------------------------------------------------|
B -------15-14----------12-------15-14----------12-------15-14----------12-------|
G ----11-------14-12-11------12--------14-12-11----------------14-12-11----------|
D -12---------------------12----------------------12-14--------------------12-14-|
A -------------------------------------------------------------------------------|
D -------------------------------------------------------------------------------|

Rainbow

E ---------------------------------------------------------------------------|
B ---------------------------------------------------------------------------|
G ---------------------------------------------------------------------------|
D -22222222222222222222222222222777777779999999555555555555555777777799999999|
A -22222222222222222222222222222777777779999999555555555555555777777799999999|
D -22222222222222222222222222222777777779999999555555555555555777777799999999|

E ----------------------------------------------------------------------------|
B ----------------------------------------------------------------------------|
G ----------------------------------------------------------------------------|
D -222222222222222222222222222229999999977777777555555555555557777777999999992|
A -222222222222222222222222222229999999977777777555555555555557777777999999992|
D -222222222222222222222222222229999999977777777555555555555557777777999999992|
comments
We did not receive enough feedback on this tab! Please rate:
print report bad tab
1 2 3 4 5
2 comments total.
0 reply
I0PA wrote on September 16 2009, 02:59 pm

Are you going to make gtp-tab? ;)

0 reply
Fercurix wrote on September 17 2009, 07:26 pm

when I figure it out perhaps =D

I want to post or [tab]
guest
You may want to rate the tab now too:
select rating
Please do not post tabs as comments. Select "correction" instead!