Oops, an error
Loading. Please wait.

My Perception Tab

3,390 views 6 this week
2 commentsread comments
1 2 3 4 5
excellent!
x 4
add to favorites launch autoscroll
font size
0
reset
Autoscroll
+/-
esc
set tempo
stop
Contributor
Difficulty
intermediate
WARNING: You are trying to view
                                    content from Ultimate-Guitar.com
                                    in an unauthorized application,
                                    which is prohibited.

                                    Please use an official Ultimate
                                    Guitar Tabs application for iPhone,
                                    iPad or Android to access legitimate
                                    chords, guitar, bass, and drum tabs
                                    from Ultimate-Guitar.com database.

                                    Type "ultimate guitar tabs" in Apple
                                    App Store's or Android Market's
                                    search to find the application.
Black Box Revelation - My Perception

Here's the tab of the 3th album by Black Box Revelation, called 'My Perception'. If you 
don't have it yet, just buy it, 'cause it's a great album!



1.	Madhouse

Intro

e|------------------------------------------------|
b|------------------------------------------------|
g|-2-2------0—-2-2------0—-2-2-----0—-2-2------0--|
d|-2-2—-0h2----2-2--0h2----2-2—0h2----2-2—-0h2----|
a|-0-0---------0-0---------0-0--------0-0---------|
e|------------------------------------------------|
		   ow			madhouse

e|------------------------------------------------|
b|------------------------------------------------|
g|-2-2------0—-2-2------0—-2-2-----0—-2-2------0--|
d|-2-2—-0h2----2-2--0h2----2-2—0h2----2-2—-0h2----|
a|-0-0---------0-0---------0-0--------0-0---------|
e|------------------------------------------------|

Verse

e|------------------------------------------------|
b|------------------------------------------------|
g|-2-2------0—-2-2------0—-2-2-----0—-2-2------0--|
d|-2-2—-0h2----2-2--0h2----2-2—0h2----2-2—-0h2----|
a|-0-0---------0-0---------0-0--------0-0---------|
e|------------------------------------------------|
    Snakes are leading my way to the madhouse

e|------------------------------------------------|
b|------------------------------------------------|
g|-2-2------0—-2-2------0—-2-2-----0—-2-2------0--|
d|-2-2—-0h2----2-2--0h2----2-2—0h2----2-2—-0h2----|
a|-0-0---------0-0---------0-0--------0-0---------|
e|------------------------------------------------|
    My thoughts will fade away in the madhouse

e|-----------------------------------------------------|
b|-----------------------------------------------------|
g|-5—--5—-5—-5--5—--5—-5---7---7—-7—-7—-7-—-7—-7-------|
d|-5---5—-5--5--5—--5—-5---7---7—-7—-7—-7-—-7—-7-------|
a|-3—--3—-3—-3--3—--3—-3-—-5—--5—-5—-5—-5-—-5—-5-------|
e|-----------------------------------------------------|
    Switch my brain off     Washing it all with cold water

e|------------------------------------------------|
b|------------------------------------------------|
g|-2-2------0—-2-2------0—-2-2-----0—-2-2------0--|
d|-2-2—-0h2----2-2--0h2----2-2—0h2----2-2—-0h2----|
a|-0-0---------0-0---------0-0--------0-0---------|
e|------------------------------------------------|

e|------------------------------------------------|
b|------------------------------------------------|
g|-2-2------0—-2-2------0—-2-2-----0—-2-2------0--|
d|-2-2—-0h2----2-2--0h2----2-2—0h2----2-2—-0h2----|
a|-0-0---------0-0---------0-0--------0-0---------|
e|------------------------------------------------|
    Less food every day at the madhouse

e|------------------------------------------------|
b|------------------------------------------------|
g|-2-2------0—-2-2------0—-2-2-----0—-2-2------0--|
d|-2-2—-0h2----2-2--0h2----2-2—0h2----2-2—-0h2----|
a|-0-0---------0-0---------0-0--------0-0---------|
e|------------------------------------------------|
    The joy pills served to me are long gone

e|-----------------------------------------------------|
b|-----------------------------------------------------|
g|-5—--5—-5—-5--5—--5—-5---7---7—-7—-7—-7-—-7—-7-------|
d|-5---5—-5--5--5—--5—-5---7---7—-7—-7—-7-—-7—-7-------|
a|-3—--3—-3—-3--3—--3—-3-—-5—--5—-5—-5—-5-—-5—-5-------|
e|-----------------------------------------------------|
    Eat my own flesh		Beating myself with my bones

e|-----------------|
b|----1---3b—-1----|
g|------2-------2--|
d|-----------------|
a|-0---------------|
e|-----------------|

Chorus

e|-----------------------------------------------------|
b|-----------------------------------------------------|
g|-5—--5—-5—-5--5—--5—-5---7---7—-7—-7—-7-—-7—-7-------|
d|-5---5—-5--5--5—--5—-5---7---7—-7—-7—-7-—-7—-7-------|
a|-3—--3—-3—-3--3—--3—-3-—-5—--5—-5—-5—-5-—-5—-5-------|
e|-----------------------------------------------------|
                                    Who made me a skeleton?
 
e|------------------------------------|
b|----1---3b—-1------1---3b--1--------|
g|------2-------2------2-------2------|
d|------------------------------------|
a|-0---------------0------------------|
e|------------------------------------|
            Who caused my death?

e|-----------------------------------------------------|
b|-----------------------------------------------------|
g|-7—--7—-7—-7--7—--7—-7---5---5—-5—-5—-5-—-5—-5-------|
d|-7---7—-7--7--7—--7—-7---5---5—-5—-5—-5-—-5—-5-------|
a|-5—--5—-5—-5--5—--5—-5-—-3—--3—-3—-3—-3-—-3—-3-------|
e|-----------------------------------------------------|
    Pleasing, teasing      Holding my own breath

Verse

e|------------------------------------------------|
b|------------------------------------------------|
g|-2-2------0—-2-2------0—-2-2-----0—-2-2------0--|
d|-2-2—-0h2----2-2--0h2----2-2—0h2----2-2—-0h2----|
a|-0-0---------0-0---------0-0--------0-0---------|
e|------------------------------------------------|

e|------------------------------------------------|
b|------------------------------------------------|
g|-2-2------0—-2-2------0—-2-2-----0—-2-2------0--|
d|-2-2—-0h2----2-2--0h2----2-2—0h2----2-2—-0h2----|
a|-0-0---------0-0---------0-0--------0-0---------|
e|------------------------------------------------|
    Snakes are leading my way to the graveyard

e|------------------------------------------------|
b|------------------------------------------------|
g|-2-2------0—-2-2------0—-2-2-----0—-2-2------0--|
d|-2-2—-0h2----2-2--0h2----2-2—0h2----2-2—-0h2----|
a|-0-0---------0-0---------0-0--------0-0---------|
e|------------------------------------------------|
    My bones will fade away at the graveyard

e|-----------------------------------------------------|
b|-----------------------------------------------------|
g|-5—--5—-5—-5--5—--5—-5---7---7—-7—-7—-7-—-7—-7-------|
d|-5---5—-5--5--5—--5—-5---7---7—-7—-7—-7-—-7—-7-------|
a|-3—--3—-3—-3--3—--3—-3-—-5—--5—-5—-5—-5-—-5—-5-------|
e|-----------------------------------------------------|
    Nothing left           Of my dance with death

e|-------------------------|
b|-------------------------|
g|-2-2------0—-2-2------0—-|
d|-2-2—-0h2----2-2--0h2----|
a|-0-0---------0-0---------|
e|-------------------------|

Chorus

e|-----------------------------------------------------|
b|-----------------------------------------------------|
g|-5—--5—-5—-5--5—--5—-5---7---7—-7—-7—-7-—-7—-7-------|
d|-5---5—-5--5--5—--5—-5---7---7—-7—-7—-7-—-7—-7-------|
a|-3—--3—-3—-3--3—--3—-3-—-5—--5—-5—-5—-5-—-5—-5-------|
e|-----------------------------------------------------|
    Nothing left                    Who made me a skeleton?

e|------------------------------------|
b|----1---3b—-1------1---3b--1--------|
g|------2-------2------2-------2------|
d|------------------------------------|
a|-0---------------0------------------|
e|------------------------------------|
            Who caused my death?

e|-----------------------------------------------------|
b|-----------------------------------------------------|
g|-7—--7—-7—-7--7—--7—-7---5---5—-5—-5—-5-—-5—-5-------|
d|-7---7—-7--7--7—--7—-7---5---5—-5—-5—-5-—-5—-5-------|
a|-5—--5—-5—-5--5—--5—-5-—-3—--3—-3—-3—-3-—-3—-3-------|
e|-----------------------------------------------------|
    Cheering sneering      dancing with myself

Solo

e|--------------------------------------------------------------------|
b|--------------------------------------------/3--------------/3------|
g|-/14-14-14-14-14-0-/12-12-12-12-12---0-/5-0---0-/2--0-/5-0-----0-/2-|
d|--------------------------------------------------------------------|
a|--------------------------------------------------------------------|
e|--------------------------------------------------------------------|

e|--------------------------------------------------------------------|
b|--------------------------------------------/3--------------/3------|
g|-/14-14-14-14-14-0-/12-12-12-12-12---0-/5-0---0-/2--0-/5-0-----0-/2-|
d|--------------------------------------------------------------------|
a|--------------------------------------------------------------------|
e|--------------------------------------------------------------------|
 
e|-----------------------------------------------------------------------|
b|----------------13-----------------12----------/3--------------/3------|
g|-/14-14-14-14-14--0-/12-12-12-12-12---0-/5-0---0-/2--0-/5-0-----0-/2---|
d|-----------------------------------------------------------------------|
a|-----------------------------------------------------------------------|
e|-----------------------------------------------------------------------|

e|-----------------------------------------------------------------------|
b|----------------13-----------------12----------/3--------------/3------|
g|-/14-14-14-14-14--0-/12-12-12-12-12---0-/5-0---0-/2--0-/5-0-----0-/2---|
d|-----------------------------------------------------------------------|
a|-----------------------------------------------------------------------|
e|-----------------------------------------------------------------------|

Chorus
                                      Who made me a
e|------------------------------------|
b|----1---3b—-1------1---3b--1--------|
g|------2-------2------2-------2------|
d|------------------------------------|
a|-0---------------0------------------|
e|------------------------------------|
skeleton?   Who caused my death?

e|-----------------------------------------------------|
b|-----------------------------------------------------|
g|-7—--7—-7—-7--7—--7—-7---5---5—-5—-5—-5-—-5—-5-------|
d|-7---7—-7--7--7—--7—-7---5---5—-5—-5—-5-—-5—-5-------|
a|-5—--5—-5—-5--5—--5—-5-—-3—--3—-3—-3—-3-—-3—-3-------|
e|-----------------------------------------------------|
   Pleasing, teasing       Holding my own breath    Who made me a

e|------------------------------------|
b|----1---3b—-1------1---3b--1--------|
g|------2-------2------2-------2------|
d|------------------------------------|
a|-0---------------0------------------|
e|------------------------------------|
skeleton?        Who caused my death?

e|------------------------------------------------------|
b|------------------------------------------------------|
g|-7—--7—-7—-7--7—--7—-7---5---5—-5—-5—-5-—-5—-5---2----|
d|-7---7—-7--7--7—--7—-7---5---5—-5—-5—-5-—-5—-5---2----|
a|-5—--5—-5—-5--5—--5—-5-—-3—--3—-3—-3—-3-—-3—-3---0----|
e|------------------------------------------------------|
   Cheering sneering        Dancing with myself



2.	My Perception

Capo on 5th fret

Intro

e|--------------------------------------------------------|
b|----------------3-3-3-3------------------3-3-3-3--------|
g|-2—-2-2-2—-2-2—-2-2-2-2—-2-2—-1-1-1-1-1—-1-1-1-1—-1-1---|
d|-2—-2-2-2—-2-2—-2-2-2-2—-2-2—-2-2-2-2-2—-2-2-2-2—-2-2---|
a|-0—-0-0-0—-0-0—-0-0-0-0—-0-0—-2-2-2-2-2—-2-2-2-2—-2-2---|
e|------------------------------0-0-0-0-0—-0-0-0-0—-0-0---|
    All   that I     got  my perception, lost connection

e|--------------------------------------------------------|
b|----------------3-3-3-3------------------3-3-3-3--------|
g|-2—-2-2-2—-2-2—-2-2-2-2—-2-2—-1-1-1-1-1—-1-1-1-1—-1-1---|
d|-2—-2-2-2—-2-2—-2-2-2-2—-2-2—-2-2-2-2-2—-2-2-2-2—-2-2---|
a|-0—-0-0-0—-0-0—-0-0-0-0—-0-0—-2-2-2-2-2—-2-2-2-2—-2-2---|
e|------------------------------0-0-0-0-0—-0-0-0-0—-0-0---|
    All   that I     got  my perception                 Well I’ve

Verse

e|-----------------------------------------|
b|--------------3-2-----------------3-2----|
g|-1—-2-1—-2-1—-1-1-1—-1—-2-1—-2-1—-1-1-1--|
d|-2--2-2—-2-2—-2-2-2—-2—-2-2—-2-2—-2-2-2--|
a|-2—-2-2—-2-2—-2-2-2—-2—-2-2—-2-2—-2-2-2--|
e|-0—-0-0—-0-0—-0-0-0—-0—-0-0—-0-0—-0-0-0--|
   seen the guards standing on the side of the road   leading

e|-----------------------------------------------------|
b|-------------3-3-3-3-------------------3-3-3-3-------|
g|-2-2—-2-2-2—-2-2-2-2—-2-2—-2-2—-2-2-2—-2-2-2-2--2-2--|
d|-2-2—-2-2-2—-2-2-2-2—-2-2—-2-2—-2-2-2—-2-2-2-2--2-2--|
a|-0-0—-0-0-0—-0-0-0-0—-0-0—-0-0—-0-0-0—-0-0-0-0—-0-0--|
e|-----------------------------------------------------|
    us to another city don’t know if we’ll ever see the sun again

e|-----------------------------------------|
b|--------------3-2-----------------3-2----|
g|-1—-2-1—-2-1—-1-1-1—-1—-2-1—-2-1—-1-1-1--|
d|-2--2-2—-2-2—-2-2-2—-2—-2-2—-2-2—-2-2-2--|
a|-2—-2-2—-2-2—-2-2-2—-2—-2-2—-2-2—-2-2-2--|
e|-0—-0-0—-0-0—-0-0-0—-0—-0-0—-0-0—-0-0-0--|
                                       And my
 
e|-----------------------------------------|
b|--------------3-2-----------------3-2----|
g|-1—-2-1—-2-1—-1-1-1—-1—-2-1—-2-1—-1-1-1--|
d|-2--2-2—-2-2—-2-2-2—-2—-2-2—-2-2—-2-2-2--|
a|-2—-2-2—-2-2—-2-2-2—-2—-2-2—-2-2—-2-2-2--|
e|-0—-0-0—-0-0—-0-0-0—-0—-0-0—-0-0—-0-0-0--|
    Sweet love, dead beasts don’t look pretty  so close your

e|-----------------------------------------------------|
b|-------------3-3-3-3-------------------3-3-3-3-------|
g|-2-2—-2-2-2—-2-2-2-2—-2-2—-2-2—-2-2-2—-2-2-2-2--2-2--|
d|-2-2—-2-2-2—-2-2-2-2—-2-2—-2-2—-2-2-2—-2-2-2-2--2-2--|
a|-0-0—-0-0-0—-0-0-0-0—-0-0—-0-0—-0-0-0—-0-0-0-0—-0-0--|
e|-----------------------------------------------------|
    eyes behind the window, I see your tears dancing in the sky

e|-----------------------------------------|
b|--------------3-2-----------------3-2----|
g|-1—-2-1—-2-1—-1-1-1—-1—-2-1—-2-1—-1-1-1--|
d|-2--2-2—-2-2—-2-2-2—-2—-2-2—-2-2—-2-2-2--|
a|-2—-2-2—-2-2—-2-2-2—-2—-2-2—-2-2—-2-2-2--|
e|-0—-0-0—-0-0—-0-0-0—-0—-0-0—-0-0—-0-0-0--|
                                      And it’s

Chorus

e|--------------------------------------------------------|
b|----------------3-3-3-3------------------3-3-3-3--------|
g|-2—-2-2-2—-2-2—-2-2-2-2—-2-2—-1-1-1-1-1—-1-1-1-1—-1-1---|
d|-2—-2-2-2—-2-2—-2-2-2-2—-2-2—-2-2-2-2-2—-2-2-2-2—-2-2---|
a|-0—-0-0-0—-0-0—-0-0-0-0—-0-0—-2-2-2-2-2—-2-2-2-2—-2-2---|
e|------------------------------0-0-0-0-0—-0-0-0-0—-0-0---|
    All   that I     got  my perception, lost connection

e|--------------------------------------------------------|
b|----------------3-3-3-3------------------3-3-3-3--------|
g|-2—-2-2-2—-2-2—-2-2-2-2—-2-2—-1-1-1-1-1—-1-1-1-1—-1-1---|
d|-2—-2-2-2—-2-2—-2-2-2-2—-2-2—-2-2-2-2-2—-2-2-2-2—-2-2---|
a|-0—-0-0-0—-0-0—-0-0-0-0—-0-0—-2-2-2-2-2—-2-2-2-2—-2-2---|
e|------------------------------0-0-0-0-0—-0-0-0-0—-0-0---|
    All   that I     got  my perception                 Forget the
 
Verse

e|-----------------------------------------|
b|--------------3-2-----------------3-2----|
g|-1—-2-1—-2-1—-1-1-1—-1—-2-1—-2-1—-1-1-1--|
d|-2--2-2—-2-2—-2-2-2—-2—-2-2—-2-2—-2-2-2--|
a|-2—-2-2—-2-2—-2-2-2—-2—-2-2—-2-2—-2-2-2--|
e|-0—-0-0—-0-0—-0-0-0—-0—-0-0—-0-0—-0-0-0--|
   city, the wood is where your soul lives   between the

e|-----------------------------------------------------|
b|-------------3-3-3-3-------------------3-3-3-3-------|
g|-2-2—-2-2-2—-2-2-2-2—-2-2—-2-2—-2-2-2—-2-2-2-2--2-2--|
d|-2-2—-2-2-2—-2-2-2-2—-2-2—-2-2—-2-2-2—-2-2-2-2--2-2--|
a|-0-0—-0-0-0—-0-0-0-0—-0-0—-0-0—-0-0-0—-0-0-0-0—-0-0--|
e|-----------------------------------------------------|
  leaves, the wolves and pigs, the only place where humans cannot hide

e|-----------------------------------------|
b|--------------3-2-----------------3-2----|
g|-1—-2-1—-2-1—-1-1-1—-1—-2-1—-2-1—-1-1-1--|
d|-2--2-2—-2-2—-2-2-2—-2—-2-2—-2-2—-2-2-2--|
a|-2—-2-2—-2-2—-2-2-2—-2—-2-2—-2-2—-2-2-2--|
e|-0—-0-0—-0-0—-0-0-0—-0—-0-0—-0-0—-0-0-0--|
                                      Let’s make

e|-----------------------------------------|
b|--------------3-2-----------------3-2----|
g|-1—-2-1—-2-1—-1-1-1—-1—-2-1—-2-1—-1-1-1--|
d|-2--2-2—-2-2—-2-2-2—-2—-2-2—-2-2—-2-2-2--|
a|-2—-2-2—-2-2—-2-2-2—-2—-2-2—-2-2—-2-2-2--|
e|-0—-0-0—-0-0—-0-0-0—-0—-0-0—-0-0—-0-0-0--|
   history run together into the future

e|-----------------------------------------------------|
b|-------------3-3-3-3-------------------3-3-3-3-------|
g|-2-2—-2-2-2—-2-2-2-2—-2-2—-2-2—-2-2-2—-2-2-2-2--2-2--|
d|-2-2—-2-2-2—-2-2-2-2—-2-2—-2-2—-2-2-2—-2-2-2-2--2-2--|
a|-0-0—-0-0-0—-0-0-0-0—-0-0—-0-0—-0-0-0—-0-0-0-0—-0-0--|
e|-----------------------------------------------------|
till we reach our last bad & go to sleep while the candles are still burning

e|-----------------------------------------|
b|--------------3-2-----------------3-2----|
g|-1—-2-1—-2-1—-1-1-1—-1—-2-1—-2-1—-1-1-1--|
d|-2--2-2—-2-2—-2-2-2—-2—-2-2—-2-2—-2-2-2--|
a|-2—-2-2—-2-2—-2-2-2—-2—-2-2—-2-2—-2-2-2--|
e|-0—-0-0—-0-0—-0-0-0—-0—-0-0—-0-0—-0-0-0--|
                                     And it’s
Chorus

e|--------------------------------------------------------|
b|----------------3-3-3-3------------------3-3-3-3--------|
g|-2—-2-2-2—-2-2—-2-2-2-2—-2-2—-1-1-1-1-1—-1-1-1-1—-1-1---|
d|-2—-2-2-2—-2-2—-2-2-2-2—-2-2—-2-2-2-2-2—-2-2-2-2—-2-2---|
a|-0—-0-0-0—-0-0—-0-0-0-0—-0-0—-2-2-2-2-2—-2-2-2-2—-2-2---|
e|------------------------------0-0-0-0-0—-0-0-0-0—-0-0---|
    All   that I     got  my perception, lost connection

e|--------------------------------------------------------|
b|----------------3-3-3-3------------------3-3-3-3--------|
g|-2—-2-2-2—-2-2—-2-2-2-2—-2-2—-1-1-1-1-1—-1-1-1-1—-1-1---|
d|-2—-2-2-2—-2-2—-2-2-2-2—-2-2—-2-2-2-2-2—-2-2-2-2—-2-2---|
a|-0—-0-0-0—-0-0—-0-0-0-0—-0-0—-2-2-2-2-2—-2-2-2-2—-2-2---|
e|------------------------------0-0-0-0-0—-0-0-0-0—-0-0---|
    All   that I     got  my perception

Solo
                                                       It’s
Chorus

e|--------------------------------------------------------|
b|----------------3-3-3-3------------------3-3-3-3--------|
g|-2—-2-2-2—-2-2—-2-2-2-2—-2-2—-1-1-1-1-1—-1-1-1-1—-1-1---|
d|-2—-2-2-2—-2-2—-2-2-2-2—-2-2—-2-2-2-2-2—-2-2-2-2—-2-2---|
a|-0—-0-0-0—-0-0—-0-0-0-0—-0-0—-2-2-2-2-2—-2-2-2-2—-2-2---|
e|------------------------------0-0-0-0-0—-0-0-0-0—-0-0---|
    All   that I     got  my perception, lost connection

e|--------------------------------------------------------|
b|----------------3-3-3-3------------------3-3-3-3--------|
g|-2—-2-2-2—-2-2—-2-2-2-2—-2-2—-1-1-1-1-1—-1-1-1-1—-1-1---|
d|-2—-2-2-2—-2-2—-2-2-2-2—-2-2—-2-2-2-2-2—-2-2-2-2—-2-2---|
a|-0—-0-0-0—-0-0—-0-0-0-0—-0-0—-2-2-2-2-2—-2-2-2-2—-2-2---|
e|------------------------------0-0-0-0-0—-0-0-0-0—-0-0---|
    All   that I     got  my perception, lost connection   Yeah it’s

e|--------------------------------------------------------|
b|----------------3-3-3-3------------------3-3-3-3--------|
g|-2—-2-2-2—-2-2—-2-2-2-2—-2-2—-1-1-1-1-1—-1-1-1-1—-1-1---|
d|-2—-2-2-2—-2-2—-2-2-2-2—-2-2—-2-2-2-2-2—-2-2-2-2—-2-2---|
a|-0—-0-0-0—-0-0—-0-0-0-0—-0-0—-2-2-2-2-2—-2-2-2-2—-2-2---|
e|------------------------------0-0-0-0-0—-0-0-0-0—-0-0---|
    All   that I     got  my perception, a new dimension
 
e|--------------------------------------------------------|
b|----------------3-3-3-3------------------3-3-3-3--------|
g|-2—-2-2-2—-2-2—-2-2-2-2—-2-2—-1-1-1-1-1—-1-1-1-1—-1-1---|
d|-2—-2-2-2—-2-2—-2-2-2-2—-2-2—-2-2-2-2-2—-2-2-2-2—-2-2---|
a|-0—-0-0-0—-0-0—-0-0-0-0—-0-0—-2-2-2-2-2—-2-2-2-2—-2-2---|
e|------------------------------0-0-0-0-0—-0-0-0-0—-0-0---|
    All   that I     got  my perception



3.	Rattle My Heart

Intro

e|-0-h-0-—0-0-0-0---5-5-5---10-10-10---|
b|-0-h-0—-0-0-0-0---5-5-5---10-10-10---|
g|-0-h-1—-1-1-1-1---6-6-6---11-11-11---|
d|-0-h-2—-2-2-2-2---7-7-7---12-12-12---|
a|-0-h-2—-2-2-2-2---7-7-7---12-12-12---|
e|-0-h-0—-0-0-0-0---5-5-5---10-10-10---|x4
                                      The

Verse
e|-0-h-0-—0-0-0-0---5-5-5---10-10-10---|
b|-0-h-0—-0-0-0-0---5-5-5---10-10-10---|
g|-0-h-1—-1-1-1-1---6-6-6---11-11-11---|
d|-0-h-2—-2-2-2-2---7-7-7---12-12-12---|
a|-0-h-2—-2-2-2-2---7-7-7---12-12-12---|
e|-0-h-0—-0-0-0-0---5-5-5---10-10-10---|
   infinite days are over

e|-0-h-0-—0-0-0-0---5-5-5---10-10-10---|
b|-0-h-0—-0-0-0-0---5-5-5---10-10-10---|
g|-0-h-1—-1-1-1-1---6-6-6---11-11-11---|
d|-0-h-2—-2-2-2-2---7-7-7---12-12-12---|
a|-0-h-2—-2-2-2-2---7-7-7---12-12-12---|
e|-0-h-0—-0-0-0-0---5-5-5---10-10-10---|
   today we’ll have an end               get

e|-0-h-0-—0-0-0-0---5-5-5---10-10-10---|
b|-0-h-0—-0-0-0-0---5-5-5---10-10-10---|
g|-0-h-1—-1-1-1-1---6-6-6---11-11-11---|
d|-0-h-2—-2-2-2-2---7-7-7---12-12-12---|
a|-0-h-2—-2-2-2-2---7-7-7---12-12-12---|
e|-0-h-0—-0-0-0-0---5-5-5---10-10-10---|
   off   your    cloud                  she
 
e|-0-h-0-—0-0-0-0---5-5-5---10-10-10---|
b|-0-h-0—-0-0-0-0---5-5-5---10-10-10---|
g|-0-h-1—-1-1-1-1---6-6-6---11-11-11---|
d|-0-h-2—-2-2-2-2---7-7-7---12-12-12---|
a|-0-h-2—-2-2-2-2---7-7-7---12-12-12---|
e|-0-h-0—-0-0-0-0---5-5-5---10-10-10---|
   yells

e|-0-h-0-—0-0-0-0---5-5-5---10-10-10---|
b|-0-h-0—-0-0-0-0---5-5-5---10-10-10---|
g|-0-h-1—-1-1-1-1---6-6-6---11-11-11---|
d|-0-h-2—-2-2-2-2---7-7-7---12-12-12---|
a|-0-h-2—-2-2-2-2---7-7-7---12-12-12---|
e|-0-h-0—-0-0-0-0---5-5-5---10-10-10---|
   The flowers I carry with me

e|-0-h-0-—0-0-0-0---5-5-5---10-10-10---|
b|-0-h-0—-0-0-0-0---5-5-5---10-10-10---|
g|-0-h-1—-1-1-1-1---6-6-6---11-11-11---|
d|-0-h-2—-2-2-2-2---7-7-7---12-12-12---|
a|-0-h-2—-2-2-2-2---7-7-7---12-12-12---|
e|-0-h-0—-0-0-0-0---5-5-5---10-10-10---|
   The sweet smell of her hair

e|-0-h-0-—0-0-0-0---5-5-5---10-10-10---|
b|-0-h-0—-0-0-0-0---5-5-5---10-10-10---|
g|-0-h-1—-1-1-1-1---6-6-6---11-11-11---|
d|-0-h-2—-2-2-2-2---7-7-7---12-12-12---|
a|-0-h-2—-2-2-2-2---7-7-7---12-12-12---|
e|-0-h-0—-0-0-0-0---5-5-5---10-10-10---|
before dusk falls, she’ll be mine

e|-0-h-0-—0-0-0-0---5-5-5---10-10-10---|
b|-0-h-0—-0-0-0-0---5-5-5---10-10-10---|
g|-0-h-1—-1-1-1-1---6-6-6---11-11-11---|
d|-0-h-2—-2-2-2-2---7-7-7---12-12-12---|
a|-0-h-2—-2-2-2-2---7-7-7---12-12-12---|
e|-0-h-0—-0-0-0-0---5-5-5---10-10-10---|
                                  I said
Chorus

e|-5-5-5---5-5-5-5---10-10-10---10-10-10-10--|
b|-5-5-5---5-5-5-5---10-10-10---10-10-10-10--|
g|-6-6-6---6-6-6-6---11-11-11---11-11-11-11--|
d|-7-7-7---7-7-7-7---12-12-12---12-12-12-12--|
a|-7-7-7---7-7-7-7---12-12-12---12-12-12-12--|
e|-5-5-5---5-5-5-5---10-10-10---10-10-10-10--|
ra ra ra ra ra ra rattle my heart

e|-0-h-0-—0-0-0-0---5-5-5---10-10-10---|
b|-0-h-0—-0-0-0-0---5-5-5---10-10-10---|
g|-0-h-1—-1-1-1-1---6-6-6---11-11-11---|
d|-0-h-2—-2-2-2-2---7-7-7---12-12-12---|
a|-0-h-2—-2-2-2-2---7-7-7---12-12-12---|
e|-0-h-0—-0-0-0-0---5-5-5---10-10-10---|
                      ratlle my

e|-0-h-0-—0-0-0-0---5-5-5---10-10-10---|
b|-0-h-0—-0-0-0-0---5-5-5---10-10-10---|
g|-0-h-1—-1-1-1-1---6-6-6---11-11-11---|
d|-0-h-2—-2-2-2-2---7-7-7---12-12-12---|
a|-0-h-2—-2-2-2-2---7-7-7---12-12-12---|
e|-0-h-0—-0-0-0-0---5-5-5---10-10-10---|
    heart

Verse

e|-0-h-0-—0-0-0-0---5-5-5---10-10-10---|
b|-0-h-0—-0-0-0-0---5-5-5---10-10-10---|
g|-0-h-1—-1-1-1-1---6-6-6---11-11-11---|
d|-0-h-2—-2-2-2-2---7-7-7---12-12-12---|
a|-0-h-2—-2-2-2-2---7-7-7---12-12-12---|
e|-0-h-0—-0-0-0-0---5-5-5---10-10-10---|
   She’ll be so excited          I’ll

e|-0-h-0-—0-0-0-0---5-5-5---10-10-10---|
b|-0-h-0—-0-0-0-0---5-5-5---10-10-10---|
g|-0-h-1—-1-1-1-1---6-6-6---11-11-11---|
d|-0-h-2—-2-2-2-2---7-7-7---12-12-12---|
a|-0-h-2—-2-2-2-2---7-7-7---12-12-12---|
e|-0-h-0—-0-0-0-0---5-5-5---10-10-10---|
   take her everywhere
 
e|-0-h-0-—0-0-0-0---5-5-5---10-10-10---|
b|-0-h-0—-0-0-0-0---5-5-5---10-10-10---|
g|-0-h-1—-1-1-1-1---6-6-6---11-11-11---|
d|-0-h-2—-2-2-2-2---7-7-7---12-12-12---|
a|-0-h-2—-2-2-2-2---7-7-7---12-12-12---|
e|-0-h-0—-0-0-0-0---5-5-5---10-10-10---|
    Be my everything, girl

e|-0-h-0-—0-0-0-0---5-5-5---10-10-10---|
b|-0-h-0—-0-0-0-0---5-5-5---10-10-10---|
g|-0-h-1—-1-1-1-1---6-6-6---11-11-11---|
d|-0-h-2—-2-2-2-2---7-7-7---12-12-12---|
a|-0-h-2—-2-2-2-2---7-7-7---12-12-12---|
e|-0-h-0—-0-0-0-0---5-5-5---10-10-10---|
the night had fallen quickly

e|-0-h-0-—0-0-0-0---5-5-5---10-10-10---|
b|-0-h-0—-0-0-0-0---5-5-5---10-10-10---|
g|-0-h-1—-1-1-1-1---6-6-6---11-11-11---|
d|-0-h-2—-2-2-2-2---7-7-7---12-12-12---|
a|-0-h-2—-2-2-2-2---7-7-7---12-12-12---|
e|-0-h-0—-0-0-0-0---5-5-5---10-10-10---|
the moon lit her road             what a

e|-0-h-0-—0-0-0-0---5-5-5---10-10-10---|
b|-0-h-0—-0-0-0-0---5-5-5---10-10-10---|
g|-0-h-1—-1-1-1-1---6-6-6---11-11-11---|
d|-0-h-2—-2-2-2-2---7-7-7---12-12-12---|
a|-0-h-2—-2-2-2-2---7-7-7---12-12-12---|
e|-0-h-0—-0-0-0-0---5-5-5---10-10-10---|
knocking sound she caused

e|-0-h-0-—0-0-0-0---5-5-5---10-10-10---|
b|-0-h-0—-0-0-0-0---5-5-5---10-10-10---|
g|-0-h-1—-1-1-1-1---6-6-6---11-11-11---|
d|-0-h-2—-2-2-2-2---7-7-7---12-12-12---|
a|-0-h-2—-2-2-2-2---7-7-7---12-12-12---|
e|-0-h-0—-0-0-0-0---5-5-5---10-10-10---|
                             I said

Chorus
 
e|-5-5-5---5-5-5-5---10-10-10---10-10-10-10--|
b|-5-5-5---5-5-5-5---10-10-10---10-10-10-10--|
g|-6-6-6---6-6-6-6---11-11-11---11-11-11-11--|
d|-7-7-7---7-7-7-7---12-12-12---12-12-12-12--|
a|-7-7-7---7-7-7-7---12-12-12---12-12-12-12--|
e|-5-5-5---5-5-5-5---10-10-10---10-10-10-10--|
ra ra ra ra ra ra rattle my heart

e|-0-h-0-—0-0-0-0---5-5-5---10-10-10---|
b|-0-h-0—-0-0-0-0---5-5-5---10-10-10---|
g|-0-h-1—-1-1-1-1---6-6-6---11-11-11---|
d|-0-h-2—-2-2-2-2---7-7-7---12-12-12---|
a|-0-h-2—-2-2-2-2---7-7-7---12-12-12---|
e|-0-h-0—-0-0-0-0---5-5-5---10-10-10---|

e|-5-5-5---5-5-5-5---10-10-10---10-10-10-10--|
b|-5-5-5---5-5-5-5---10-10-10---10-10-10-10--|
g|-6-6-6---6-6-6-6---11-11-11---11-11-11-11--|
d|-7-7-7---7-7-7-7---12-12-12---12-12-12-12--|
a|-7-7-7---7-7-7-7---12-12-12---12-12-12-12--|
e|-5-5-5---5-5-5-5---10-10-10---10-10-10-10--|
  ra ra ra ra ra ra rattle my heart

e|-0-h-0-—0-0-0-0---5-5-5---10-10-10---|
b|-0-h-0—-0-0-0-0---5-5-5---10-10-10---|
g|-0-h-1—-1-1-1-1---6-6-6---11-11-11---|
d|-0-h-2—-2-2-2-2---7-7-7---12-12-12---|
a|-0-h-2—-2-2-2-2---7-7-7---12-12-12---|
e|-0-h-0—-0-0-0-0---5-5-5---10-10-10---|

e|-5-5-5---10--|
b|-5-5-5---10--|
g|-6-6-6---11--|
d|-7-7-7---12--|
a|-7-7-7---12--|
e|-5-5-5---10--|
ra ra ra ra wow    rattle my

e|-0-h-0-—0-0-0-0---5-5-5---10-10-10---|
b|-0-h-0—-0-0-0-0---5-5-5---10-10-10---|
g|-0-h-1—-1-1-1-1---6-6-6---11-11-11---|
d|-0-h-2—-2-2-2-2---7-7-7---12-12-12---|
a|-0-h-2—-2-2-2-2---7-7-7---12-12-12---|
e|-0-h-0—-0-0-0-0---5-5-5---10-10-10---|
  heart                        my
 
e|-0-h-0-—0-0-0-0---5-5-5---10-10-10---|
b|-0-h-0—-0-0-0-0---5-5-5---10-10-10---|
g|-0-h-1—-1-1-1-1---6-6-6---11-11-11---|
d|-0-h-2—-2-2-2-2---7-7-7---12-12-12---|
a|-0-h-2—-2-2-2-2---7-7-7---12-12-12---|
e|-0-h-0—-0-0-0-0---5-5-5---10-10-10---|
heart, my heart               rattle my

e|-0-h-0-—0-0-0-0---5-5-5---10-10-10---|
b|-0-h-0—-0-0-0-0---5-5-5---10-10-10---|
g|-0-h-1—-1-1-1-1---6-6-6---11-11-11---|
d|-0-h-2—-2-2-2-2---7-7-7---12-12-12---|
a|-0-h-2—-2-2-2-2---7-7-7---12-12-12---|
e|-0-h-0—-0-0-0-0---5-5-5---10-10-10---|
   heart, rattle my heart, rattle my ha-ha-ha

e|-0-h-0-—0-0-0-0---5-5-5---10-10-10---|
b|-0-h-0—-0-0-0-0---5-5-5---10-10-10---|
g|-0-h-1—-1-1-1-1---6-6-6---11-11-11---|
d|-0-h-2—-2-2-2-2---7-7-7---12-12-12---|
a|-0-h-2—-2-2-2-2---7-7-7---12-12-12---|
e|-0-h-0—-0-0-0-0---5-5-5---10-10-10---|
   rattle my heart girl!       I said

e|-5-5-5---10--|
b|-5-5-5---10--|
g|-6-6-6---11--|
d|-7-7-7---12--|
a|-7-7-7---12--|
e|-5-5-5---10--|
ra ra ra ra wow    rattle my

e|-5~-|
b|-5~-|
g|-6~-|
d|-7~-|
a|-7~-|
e|-5~-|
heart
 


4.	Bitter

Intro

e|-------------------------------------|
b|-------------------------------------|
g|---12---11--10---9---8---7---5-------|
d|---12---11--10---9---8---7---5---5---|
a|---10-—-9---8----7---6---5---3—--5---|
e|---------------------------------3---|x2

Verse

e|-------------------------------------|
b|-------------------------------------|
g|---12---11--10---9---8---7---5-------|
d|---12---11--10---9---8---7---5---5---|
a|---10-—-9---8----7---6---5---3—--5---|
e|---------------------------------3---|
 Live in a World of anger, not 1 day to calm you down

e|-------------------------------------|
b|-------------------------------------|
g|---12---11--10---9---8---7---5-------|
d|---12---11--10---9---8---7---5---5---|
a|---10-—-9---8----7---6---5---3—--5---|
e|---------------------------------3---|
No one wants to surrender, who will be the First to fall?

e|-------------------------------------|
b|-------------------------------------|
g|---12---11--10---9---8---7---5-------|
d|---12---11--10---9---8---7---5---5---|
a|---10-—-9---8----7---6---5---3—--5---|
e|---------------------------------3---|
Each and every one of us needs someone to make love be true

e|-------------------------------------|
b|-------------------------------------|
g|---12---11--10---9---8---7---5-------|
d|---12---11--10---9---8---7---5---5---|
a|---10-—-9---8----7---6---5---3—--5---|
e|---------------------------------3---|
We’ll be in love together, why don’t we eat each others heart

Chorus

e|-------------------------------------|
b|-------------------------------------|
g|---12---11--10---9---8---7---5-------|
d|---12---11--10---9---8---7---5---5---|
a|---10-—-9---8----7---6---5---3—--5---|
e|---------------------------------3---|
My heart tastes bitter without yours

e|-------------------------------------|
b|-------------------------------------|
g|---12---11--10---9---8---7---5-------|
d|---12---11--10---9---8---7---5---5---|
a|---10-—-9---8----7---6---5---3—--5---|
e|---------------------------------3---|
Without your heart

Bridge

e|----------------------------|
b|----------------------------|
g|----------------------------|
d|----------------------------|
a|-10----13----6----5----3----|
e|----------------------------|x2

Verse

e|----------------------------|
b|----------------------------|
g|----------------------------|
d|----------------------------|
a|-10----13----6----5----3----|
e|----------------------------|
Long gone and blood like amber underneath the Apple tree

e|----------------------------|
b|----------------------------|
g|----------------------------|
d|----------------------------|
a|-10----13----6----5----3----|
e|----------------------------|
The children climb our branches, impatiient for the fruit to fall

e|-------------------------------------------|
b|-------------------------------------------|
g|-------------------------------------------|
d|-------------------------------------------|
a|-------------------5h6-5-3-1---3h5-3-1-0---|
e|-3-3-3-3-3-3-3-3---------------------------|
Each and every single day’s an everlasting passion kill

e|-------------------------------------------|
b|-------------------------------------------|
g|-------------------------------------------|
d|-------------------------------------------|
a|-------------------5h6-5-3-1---3h5-3-1-0---|
e|-3-3-3-3-3-3-3-3---------------------------|
Our souls entwined forever, doomed together from the start

Chorus

e|-------------------------------------|
b|-------------------------------------|
g|---12---11--10---9---8---7---5-------|
d|---12---11--10---9---8---7---5---5---|
a|---10-—-9---8----7---6---5---3—--5---|
e|---------------------------------3---|
My heart tastes bitter without yours

e|-------------------------------------|
b|-------------------------------------|
g|---12---11--10---9---8---7---5-------|
d|---12---11--10---9---8---7---5---5---|
a|---10-—-9---8----7---6---5---3—--5---|
e|---------------------------------3---|
Without your heart

e|-------------------------------------|
b|-------------------------------------|
g|---12---11--10---9---8---7---5-------|
d|---12---11--10---9---8---7---5---5---|
a|---10-—-9---8----7---6---5---3—--5---|
e|---------------------------------3---|
My heart tastes bitter without yours

e|-------------------------------------|
b|-------------------------------------|
g|---12---11--10---9---8---7---5-------|
d|---12---11--10---9---8---7---5---5---|
a|---10-—-9---8----7---6---5---3—--5---|
e|---------------------------------3---|
Without your heart

Outro

e|-------------------------------------|
b|-------------------------------------|
g|-------------------------------------|
d|-------------------------------------|
a|-10-10---13-15-18---17h18-17-15-13---|
e|-------------------------------------|x2

e|----------|
b|----------|
g|----------|
d|----------|
a|-5-3-1-0--|
e|----------|
 
e|------------------------------------------|
b|------------------------------------------|
g|------------------------------------------|
d|------------------------------------------|
a|-------------------5h6-5-3-1-3h5-3-1-0----|
e|-3-3-3-3-3-3-3-3--------------------------|
  my heart

e|------------------------------------------|
b|------------------------------------------|
g|------------------------------------------|
d|------------------------------------------|
a|-------------------5h6-5-3-1-3h5-3-1-0----|
e|-3-3-3-3-3-3-3-3--------------------------|
  my heart

e|------------------------------------------|
b|------------------------------------------|
g|------------------------------------------|
d|------------------------------------------|
a|-------------------5h6-5-3-1-3h5-3-1-0----|
e|-3-3-3-3-3-3-3-3--------------------------|
   my  heart     tastes bitter without yours

e|------------------------------------------|
b|------------------------------------------|
g|------------------------------------------|
d|------------------------------------------|
a|-------------------5h6-5-3-1-3h5-3-1-0----|
e|-3-3-3-3-3-3-3-3--------------------------|
  my heart



5.	Skin

Intro

e|------------------------------------------------------|
b|------------------------------------------------------|
g|-----4---4-4---4---4---4-4—-4---4---4-4—-4---4---4-4--|
d|-----4---4-4---4---4---4-4—-4---4---4-4—-4---4---4-4--|
a|---2---2-----2----2---2----2---2---2----2---2---2-----|
e|------------------------------------------------------|

e|------------------------------------------------------|
b|------------------------------------------------------|
g|-----4---4-4---4---4---2-2—-4---4---2-2—-4---4---0-0--|
d|-----4---4-4---4---4---2-2—-4---4---2-2—-4---4---0-0--|
a|---2---2-----2----2---2----2---2---2----2---2---2-----|
e|------------------------------------------------------|

Verse

e|------------------------------------------------------|
b|------------------------------------------------------|
g|-----4---4-4---4---4---2-2—-4---4---2-2—-4---4---0-0--|
d|-----4---4-4---4---4---2-2—-4---4---2-2—-4---4---0-0--|
a|---2---2-----2----2---2----2---2---2----2---2---2-----|
e|------------------------------------------------------|
 Where are you going?      A walk in the dark

e|------------------------------------------------------|
b|------------------------------------------------------|
g|-----4---4-4---4---4---2-2—-4---4---2-2—-4---4---0-0--|
d|-----4---4-4---4---4---2-2—-4---4---2-2—-4---4---0-0--|
a|---2---2-----2----2---2----2---2---2----2---2---2-----|
e|------------------------------------------------------|
 Her eyes are glowing       Tweaked to see bright    Cuz we

Chorus

e|---------------------------------------------------------------------|
b|---------------------------------------------------------------------|
g|---------------------------------------4---4---4---4---4---4---4---4-|
d|-----5---5---5---5---5---5---5---5-----4---4---4---4---4---4---4---4-|
a|-----5---5---5---5---5---5---5---5---2---2---2---2---2---2---2---2---|
e|---3---3---3—--3---3—--3—--3---3-------------------------------------|
   walk  love’s path with no        sight         the distance in our

e|---------------------------------------------------------------------|
b|---------------------------------------------------------------------|
g|-------------------------------------2---2---2---2-------------------|
d|-----5---5---5---5---5---5---5-------2---2---2---2---5---5---5---5---|
a|-----5---5---5---5---5---5---5-----0---0---0---0-----5---5---5---5---|
e|---3---3---3—--3---3—--3—--3---3---------------------3---3---3---3---|
    minds       your skin right next to mine

Verse

e|------------------------------------------------------|
b|------------------------------------------------------|
g|-----4---4-4---4---4---2-2—-4---4---2-2—-4---4---0-0--|
d|-----4---4-4---4---4---2-2—-4---4---2-2—-4---4---0-0--|
a|---2---2-----2----2---2----2---2---2----2---2---2-----|
e|------------------------------------------------------|x2

e|------------------------------------------------------|
b|------------------------------------------------------|
g|-----4---4-4---4---4---2-2—-4---4---2-2—-4---4---0-0--|
d|-----4---4-4---4---4---2-2—-4---4---2-2—-4---4---0-0--|
a|---2---2-----2----2---2----2---2---2----2---2---2-----|
e|------------------------------------------------------|
  Keep on walking           soothing does hide

e|------------------------------------------------------|
b|------------------------------------------------------|
g|-----4---4-4---4---4---2-2—-4---4---2-2—-4---4---0-0--|
d|-----4---4-4---4---4---2-2—-4---4---2-2—-4---4---0-0--|
a|---2---2-----2----2---2----2---2---2----2---2---2-----|
e|------------------------------------------------------|
   I smell her roses        the breath of my life      Cuz we

Chorus

e|---------------------------------------------------------------------|
b|---------------------------------------------------------------------|
g|---------------------------------------4---4---4---4---4---4---4---4-|
d|-----5---5---5---5---5---5---5---5-----4---4---4---4---4---4---4---4-|
a|-----5---5---5---5---5---5---5---5---2---2---2---2---2---2---2---2---|
e|---3---3---3—--3---3—--3—--3---3-------------------------------------|
   walk  love’s path with no        sight         the distance in our

e|---------------------------------------------------------------------|
b|---------------------------------------------------------------------|
g|-------------------------------------2---2---2---2-------------------|
d|-----5---5---5---5---5---5---5-------2---2---2---2---5---5---5---5---|
a|-----5---5---5---5---5---5---5-----0---0---0---0-----5---5---5---5---|
e|---3---3---3—--3---3—--3—--3---3---------------------3---3---3---3---|
    minds       your skin right next to mine

Solo

e|-------------------------------------------------|
b|-------------------------------------------------|
g|-/21----19-21------------------------------------|
d|-----21-------21-19h21-19-----19h21-19h21-19-----|
a|--------------------------22-----------------22--|
e|-------------------------------------------------|x2

e|-------------------------------------------------|
b|-------------------------------------------------|
g|-/21----19-21-----/21----19-21-------------------|
d|-----21-------21------21-------21-19h21-19-------|
a|-------------------------------------------22----|
e|-------------------------------------------------|
 
e|---------------------------------------------|
b|---------------------------------------------|
g|---------------------------------------------|
d|-------17-19-19h21---19-17-17h19---17--------|
a|-19-21---------------------------------21-19-|
e|---------------------------------------------|

Verse

e|------------------------------------------------------|
b|------------------------------------------------------|
g|-----4---4-4---4---4---2-2—-4---4---2-2—-4---4---0-0--|
d|-----4---4-4---4---4---2-2—-4---4---2-2—-4---4---0-0--|
a|---2---2-----2----2---2----2---2---2----2---2---2-----|
e|------------------------------------------------------|

e|------------------------------------------------------|
b|------------------------------------------------------|
g|-----4---4-4---4---4---2-2—-4---4---2-2—-4---4---0-0--|
d|-----4---4-4---4---4---2-2—-4---4---2-2—-4---4---0-0--|
a|---2---2-----2----2---2----2---2---2----2---2---2-----|
e|------------------------------------------------------|

e|------------------------------------------------------|
b|------------------------------------------------------|
g|-----4---4-4---4---4---2-2—-4---4---2-2—-4---4---0-0--|
d|-----4---4-4---4---4---2-2—-4---4---2-2—-4---4---0-0--|
a|---2---2-----2----2---2----2---2---2----2---2---2-----|
e|------------------------------------------------------|
The night owl’s moaning   Lost to sleep as long as I

e|------------------------------------------------------|
b|------------------------------------------------------|
g|-----4---4-4---4---4---2-2—-4---4---2-2—-4---4---0-0--|
d|-----4---4-4---4---4---2-2—-4---4---2-2—-4---4---0-0--|
a|---2---2-----2----2---2----2---2---2----2---2---2-----|
e|------------------------------------------------------|
 Our eyes now glowing      Tweaked to see bright     Cuz we

Chorus

e|---------------------------------------------------------------------|
b|---------------------------------------------------------------------|
g|---------------------------------------4---4---4---4---4---4---4---4-|
d|-----5---5---5---5---5---5---5---5-----4---4---4---4---4---4---4---4-|
a|-----5---5---5---5---5---5---5---5---2---2---2---2---2---2---2---2---|
e|---3---3---3—--3---3—--3—--3---3-------------------------------------|
   walk  love’s path with no        sight         the distance in our

e|---------------------------------------------------------------------|
b|---------------------------------------------------------------------|
g|-------------------------------------2---2---2---2-------------------|
d|-----5---5---5---5---5---5---5-------2---2---2---2---5---5---5---5---|
a|-----5---5---5---5---5---5---5-----0---0---0---0-----5---5---5---5---|
e|---3---3---3—--3---3—--3—--3---3---------------------3---3---3---3---|
    minds       your skin right next to mine                   And we

e|---------------------------------------------------------------------|
b|---------------------------------------------------------------------|
g|---------------------------------------4---4---4---4---4---4---4---4-|
d|-----5---5---5---5---5---5---5---5-----4---4---4---4---4---4---4---4-|
a|-----5---5---5---5---5---5---5---5---2---2---2---2---2---2---2---2---|
e|---3---3---3—--3---3—--3—--3---3-------------------------------------|
   walk  love’s path with no        sight         the distance in our

e|---------------------------------------------------------------------|
b|---------------------------------------------------------------------|
g|-------------------------------------2---2---2---2-------------------|
d|-----5---5---5---5---5---5---5-------2---2---2---2---5---5---5---5---|
a|-----5---5---5---5---5---5---5-----0---0---0---0-----5---5---5---5---|
e|---3---3---3—--3---3—--3—--3---3---------------------3---3---3---3---|
    minds       your skin right next to mine

Outro

e|-------------------------------------------------|
b|-------------------------------------------------|
g|-/21----19-21------------------------------------|
d|-----21-------21-19h21-19-----19h21-19h21-19-----|
a|--------------------------22-----------------22--|
e|-------------------------------------------------|x2

e|-------------------------------------------------|
b|-------------------------------------------------|
g|-/21----19-21-----/21----19-21-------------------|
d|-----21-------21------21-------21-19h21-19-------|
a|-------------------------------------------22----|
e|-------------------------------------------------|

e|---------------------------------------------|
b|---------------------------------------------|
g|---------------------------------------------|
d|-------17-19-19h21---19-17-17h19---17--------|
a|-19-21---------------------------------21-19-|
e|---------------------------------------------|
 
e|------------------------------------------------------|
b|------------------------------------------------------|
g|-----4---4-4---4---4---4-4—-4---4---4-4—-4---4---4-4--|
d|-----4---4-4---4---4---4-4—-4---4---4-4—-4---4---4-4--|
a|---2---2-----2----2---2----2---2---2----2---2---2-----|
e|------------------------------------------------------| repeat



6.	White Unicorns

Intro

e|-----------------------------------------------------|
b|-----------------------------------------------------|
g|-----5-------7-------2-------5-------7-------2-------|
d|-----5-------7-------2-------5-------7-------2-------|
a|-----3-------5-------0-------3-------5-------0-------|
e|-----------------------------------------------------|x2
We’re all    white  unicorns  tied    to     the wall

e|--------------------------------------------------|   |-----|
b|--------------------------------------------------|   |-----|
g|--5-5-5-5-5---2-2-2-2-2---5-5-5-5-5---2-2-2-2-2---|   |-----|
d|--5-5-5-5-5---2-2-2-2-2---5-5-5-5-5---2-2-2-2-2---|   |-----|
a|--3-3-3-3-3---0-0-0-0-0---3-3-3-3-3---0-0-0-0-0---|   |-3-2-|
e|--------------------------------------------------|x2 |-----|

Verse

e|---------------------------------------------------|
b|---------------------------------------------------|
g|-2-------------------5-5-5-5-5---2-------5-5-5-5-5-|
d|-2---5---------------5-5-5-5-5---2---5---5-5-5-5-5-|
a|-0---5---------------3-3-3-3-3---0---5---3-3-3-3-3-|
e|-----3-------------------------------3-------------|
       look at my wings          don’t you hear them singing for you?

e|---------------------------------------------------|
b|---------------------------------------------------|
g|-2-------------------5-4-2-----2-------5-5-5-5-5---|
d|-2---5---------------5-4-2-----2---5---5-5-5-5-5---|
a|-0---5---------------3-2-0-----0---5---3-3-3-3-3---|
e|-----3-----------------------------3---------------|
    I’m looking down at your grey, old town
    Why am I colored like a fool?               We’re

Chorus
 
e|---------------------------------------------------------------|
b|---------------------------------------------------------------|
g|-5---5-5-5-5---7---2-2-2-2-2---5-5-5-5-5---7-7-7---2-2-2-2-2---|
d|-5---5-5-5-5---7---2-2-2-2-2---5-5-5-5-5---7-7-7---2-2-2-2-2---|
a|-3---3-3-3-3---5---0-0-0-0-0---3-3-3-3-3---5-5-5---0-0-0-0-0---|
e|---------------------------------------------------------------|
  All          white unicorns     tied       to       the wall   We’re

e|---------------------------------------------------------------|
b|---------------------------------------------------------------|
g|-5---5-5-5-5---7---2-2-2-2-2---5-5-5-5-5---7-7-7---2-2-2-2-2---|
d|-5---5-5-5-5---7---2-2-2-2-2---5-5-5-5-5---7-7-7---2-2-2-2-2---|
a|-3---3-3-3-3---5---0-0-0-0-0---3-3-3-3-3---5-5-5---0-0-0-0-0---|
e|---------------------------------------------------------------|
  all          white unicorns     tied       to       the wall

Verse

e|---------------------------------------------------|
b|---------------------------------------------------|
g|-2-------------------5-5-5-5-5---2-------5-5-5-5-5-|
d|-2---5---------------5-5-5-5-5---2---5---5-5-5-5-5-|
a|-0---5---------------3-3-3-3-3---0---5---3-3-3-3-3-|
e|-----3-------------------------------3-------------|
       My wings on fire  ashes of desire am I suffering your fate?

e|---------------------------------------------------|
b|---------------------------------------------------|
g|-2-------------------5-4-2-----2-------5-5-5-5-5---|
d|-2---5---------------5-4-2-----2---5---5-5-5-5-5---|
a|-0---5---------------3-2-0-----0---5---3-3-3-3-3---|
e|-----3-----------------------------3---------------|
     Forget your dream, I can’t move anything
     I’m falling like a painted statue                          We’re

Chorus

e|---------------------------------------------------------------|
b|---------------------------------------------------------------|
g|-5---5-5-5-5---7---2-2-2-2-2---5-5-5-5-5---7-7-7---2-2-2-2-2---|
d|-5---5-5-5-5---7---2-2-2-2-2---5-5-5-5-5---7-7-7---2-2-2-2-2---|
a|-3---3-3-3-3---5---0-0-0-0-0---3-3-3-3-3---5-5-5---0-0-0-0-0---|
e|---------------------------------------------------------------|
  All          white unicorns     tied       to       the wall   We’re

 e|-----------------------------------------------------------------|
b|------------------------------------------------------------------------|
g|-5---5-5-5-5---7---2-2-2-2-2---5-5-5-5-5---7-7-7---2-2-2-2-2------------|
d|-5---5-5-5-5---7---2-2-2-2-2---5-5-5-5-5---7-7-7---2-2-2-2-2------------|
a|-3---3-3-3-3---5---0-0-0-0-0---3-3-3-3-3---5-5-5---0-0-0-0-0------------|
e|------------------------------------------------------------------------|
  all          white unicorns     tied       to       the wall

Solo

e|-----------------------|
b|-5----5-3-0---3h5-3-2--|
g|--5--------------------|
d|---5-------------------|
a|-----------------------|
e|-----------------------|x3

e|-----------------------|
b|-5----5-7-----7---10~--|
g|--5--------5-----------|
d|---5--------5----------|
a|-----------------------|
e|-----------------------|



7.	Shadowman

Intro

e|---------------|
b|---------------|
g|---------------|
d|-----2---------|
a|---5-----------|
e|-0-----6-5-5-3-|x8

Verse

e|-------------------------------|
b|-------------------------------|
g|-------------------------------|
d|-----2---------------2---------|
a|---5---------------5-----------|
e|-0-----6-5-5-3---0-----6-5-5-3-|
   Walking     I see the shadowman walking

e|-------------------------------|
b|-------------------------------|
g|-------------------------------|
d|-----2---------------2---------|
a|---5---------------5-----------|
e|-0-----6-5-5-3---0-----6-5-5-3-|
                         Looking from

e|-------------------------------|
b|-------------------------------|
g|-----3---------------3---------|
d|---5---------------5-----------|
a|-0-----6-5-5-3---0-----6-5-5-3-|
e|-------------------------------|
Left           to right        Who’s that

e|-------------------------------|
b|-------------------------------|
g|-------------------------------|
d|-----2---------------2---------|
a|---5---------------5-----------|
e|-0-----6-5-5-3---0-----6-5-5-3-|
man coming up from behind?

e|-------------------------------|
b|-------------------------------|
g|-------------------------------|
d|-----2---------------2---------|
a|---5---------------5-----------|
e|-0-----6-5-5-3---0-----6-5-5-3-|

e|-------------------------------|
b|-------------------------------|
g|-------------------------------|
d|-----2---------------2---------|
a|---5---------------5-----------|
e|-0-----6-5-5-3---0-----6-5-5-3-|

e|-------------------------------|
b|-------------------------------|
g|-------------------------------|
d|-----2---------------2---------|
a|---5---------------5-----------|
e|-0-----6-5-5-3---0-----6-5-5-3-|
 Frightened                I see a
 
e|-------------------------------|
b|-------------------------------|
g|-------------------------------|
d|-----2---------------2---------|
a|---5---------------5-----------|
e|-0-----6-5-5-3---0-----6-5-5-3-|
red shadow frightened

e|-------------------------------|
b|-------------------------------|
g|-----3---------------3---------|
d|---5---------------5-----------|
a|-0-----6-5-5-3---0-----6-5-5-3-|
e|-------------------------------|
Skimming the wall              The same speed

e|-------------------------------|
b|-------------------------------|
g|-------------------------------|
d|-----2---------------2---------|
a|---5---------------5-----------|
e|-0-----6-5-5-3---0-----6-5-5-3-|
Walking   My heart grows small

Chorus

e|-------------------------|
b|-------------------------|
g|-5-5-------2-2-------2---|
d|-5-5---5---2-2---5---2---|
a|-3-3---5---0-0---5---0---|
e|-------3---------3-------|
                        Shadowman

e|-------------------------|
b|-------------------------|
g|-5-5---5---2-2-------2---|
d|-5-5---5---2-2---5---2---|
a|-3-3---5---0-0---5---0---|
e|-------3---------3-------|

Verse

e|-------------------------------|
b|-------------------------------|
g|-------------------------------|
d|-----2---------------2---------|
a|---5---------------5-----------|
e|-0-----6-5-5-3---0-----6-5-5-3-|

e|-------------------------------|
b|-------------------------------|
g|-------------------------------|
d|-----2---------------2---------|
a|---5---------------5-----------|
e|-0-----6-5-5-3---0-----6-5-5-3-|

e|-------------------------------|
b|-------------------------------|
g|-------------------------------|
d|-----2---------------2---------|
a|---5---------------5-----------|
e|-0-----6-5-5-3---0-----6-5-5-3-|

e|-------------------------------|
b|-------------------------------|
g|-------------------------------|
d|-----2---------------2---------|
a|---5---------------5-----------|
e|-0-----6-5-5-3---0-----6-5-5-3-|

e|-------------------------------|
b|-------------------------------|
g|-------------------------------|
d|-----2---------------2---------|
a|---5---------------5-----------|
e|-0-----6-5-5-3---0-----6-5-5-3-|
  Running                    Tey’re catching up

e|-------------------------------|
b|-------------------------------|
g|-------------------------------|
d|-----2---------------2---------|
a|---5---------------5-----------|
e|-0-----6-5-5-3---0-----6-5-5-3-|
   With me                   They’re

e|-------------------------------|
b|-------------------------------|
g|-----3---------------3---------|
d|---5---------------5-----------|
a|-0-----6-5-5-3---0-----6-5-5-3-|
e|-------------------------------|
 screaming                 I can’t stand to
 
e|-------------------------------|
b|-------------------------------|
g|-------------------------------|
d|-----2---------------2---------|
a|---5---------------5-----------|
e|-0-----6-5-5-3---0-----6-5-5-3-|
  hear it

Chorus

e|-------------------------|
b|-------------------------|
g|-5-5-------2-2-------2---|
d|-5-5---5---2-2---5---2---|
a|-3-3---5---0-0---5---0---|
e|-------3---------3-------|
                       Shadowman

e|-------------------------|
b|-------------------------|
g|-5-5-------2-2-------2---|
d|-5-5---5---2-2---5---2---|
a|-3-3---5---0-0---5---0---|
e|-------3---------3-------|
                       Shadowman

e|-------------------------|
b|-------------------------|
g|-5-5-------2-2-------2---|
d|-5-5---5---2-2---5---2---|
a|-3-3---5---0-0---5---0---|
e|-------3---------3-------|
                       Shadowman

e|-------------------------|
b|-------------------------|
g|-5-5-------2-2-------2---|
d|-5-5---5---2-2---5---2---|
a|-3-3---5---0-0---5---0---|
e|-------3---------3-------|

Solo

Verse
 
e|-------------------------------|
b|-------------------------------|
g|-------------------------------|
d|-----2---------------2---------|
a|---5---------------5-----------|
e|-0-----6-5-5-3---0-----6-5-5-3-|

e|-------------------------------|
b|-------------------------------|
g|-------------------------------|
d|-----2---------------2---------|
a|---5---------------5-----------|
e|-0-----6-5-5-3---0-----6-5-5-3-|

e|-------------------------------|
b|-------------------------------|
g|-------------------------------|
d|-----2---------------2---------|
a|---5---------------5-----------|
e|-0-----6-5-5-3---0-----6-5-5-3-|
Run faster                 Got to get them off my

e|-------------------------------|
b|-------------------------------|
g|-------------------------------|
d|-----2---------------2---------|
a|---5---------------5-----------|
e|-0-----6-5-5-3---0-----6-5-5-3-|
  back                     They’re going to

e|-------------------------------|
b|-------------------------------|
g|-----3---------------3---------|
d|---5---------------5-----------|
a|-0-----6-5-5-3---0-----6-5-5-3-|
e|-------------------------------|
  turn me into darkness    I don’t want to

e|-------------------------------|
b|-------------------------------|
g|-----3---------------3---------|
d|---5---------------5-----------|
a|-0-----6-5-5-3---0-----6-5-5-3-|
e|-------------------------------|
  be     a shadowman
 
Chorus

e|-------------------------|
b|-------------------------|
g|-5-5-------2-2-------2---|
d|-5-5---5---2-2---5---2---|
a|-3-3---5---0-0---5---0---|
e|-------3---------3-------|
                       Shadowman

e|-------------------------|
b|-------------------------|
g|-5-5-------2-2-------2---|
d|-5-5---5---2-2---5---2---|
a|-3-3---5---0-0---5---0---|
e|-------3---------3-------|
                       Shadowman

e|-------------------------|
b|-------------------------|
g|-5-5-------2-2-------2---|
d|-5-5---5---2-2---5---2---|
a|-3-3---5---0-0---5---0---|
e|-------3---------3-------|
                       Shadowman

e|-------------------------|
b|-------------------------|
g|-5-5-------2-2-------2---|
d|-5-5---5---2-2---5---2---|
a|-3-3---5---0-0---5---0---|
e|-------3---------3-------|



8.	New Sun

Tuning : D-A-D-Gb-A-D

Intro

e|-------------------------------------------------------------|
b|-------------------------------------------------------------|
g|-------------------------------------------------------------|
d|-/-5-5-5-5-5-5-5-5-5-5-5-5-5-5-5-5-5-5--/-8-8-8-8--/-3-3-3---|
a|-/-5-5-5-5-5-5-5-5-5-5-5-5-5-5-5-5-5-5--/-8-8-8-8--/-3-3-3---|
e|-/-5-5-5-5-5-5-5-5-5-5-5-5-5-5-5-5-5-5--/-8-8-8-8--/-3-3-3---|
 
e|------------------|
b|------------------|
g|------------------|
d|-/5-5-5-5-5-5-5-5-|
a|-/5-5-5-5-5-5-5-5-|
e|-/5-5-5-5-5-5-5-5-|

e|-------------------------------------------------------------|
b|-------------------------------------------------------------|
g|-------------------------------------------------------------|
d|-/-5-5-5-5-5-5-5-5-5-5-5-5-5-5-5-5-5-5--/-8-8-8-8--/-3-3-3---|
a|-/-5-5-5-5-5-5-5-5-5-5-5-5-5-5-5-5-5-5--/-8-8-8-8--/-3-3-3---|
e|-/-5-5-5-5-5-5-5-5-5-5-5-5-5-5-5-5-5-5--/-8-8-8-8--/-3-3-3---|

e|------------------|
b|------------------|
g|------------------|
d|-/5-5-5-5-5-5-5-5-|
a|-/5-5-5-5-5-5-5-5-|
e|-/5-5-5-5-5-5-5-5-|

Verse

e|-------------------------------------------------------------|
b|-------------------------------------------------------------|
g|-------------------------------------------------------------|
d|-/-5-5-5-5-5-5-5-5-5-5-5-5-5-5-5-5-5-5--/-8-8-8-8--/-3-3-3---|
a|-/-5-5-5-5-5-5-5-5-5-5-5-5-5-5-5-5-5-5--/-8-8-8-8--/-3-3-3---|
e|-/-5-5-5-5-5-5-5-5-5-5-5-5-5-5-5-5-5-5--/-8-8-8-8--/-3-3-3---|
Purple chairs in the  snow                  waiting for the

e|------------------|
b|------------------|
g|------------------|
d|-/5-5-5-5-5-5-5-5-|
a|-/5-5-5-5-5-5-5-5-|
e|-/5-5-5-5-5-5-5-5-|
   next round

e|-------------------------------------------------------------|
b|-------------------------------------------------------------|
g|-------------------------------------------------------------|
d|-/-5-5-5-5-5-5-5-5-5-5-5-5-5-5-5-5-5-5--/-8-8-8-8--/-3-3-3---|
a|-/-5-5-5-5-5-5-5-5-5-5-5-5-5-5-5-5-5-5--/-8-8-8-8--/-3-3-3---|
e|-/-5-5-5-5-5-5-5-5-5-5-5-5-5-5-5-5-5-5--/-8-8-8-8--/-3-3-3---|
  For  gotten   afte  e  r                           the last
 
e|------------------|
b|------------------|
g|------------------|
d|-/5-5-5-5-5-5-5-5-|
a|-/5-5-5-5-5-5-5-5-|
e|-/5-5-5-5-5-5-5-5-|
   dance            it was

Chorus

e|---------------------------------------|
b|---------------------------------------|
g|---------------------------------------|
d|-/8-8-8-8--/-3-3-3—-/-5-5-5-5-5-5-5-5--|
a|-/8-8-8-8--/-3-3-3--/-5-5-5-5-5-5-5-5--|
e|-/8-8-8-8--/-3-3-3--/-5-5-5-5-5-5-5-5--|
   fall            that took them down while the

e|---------------------------------------|
b|---------------------------------------|
g|---------------------------------------|
d|-/8-8-8-8--/-3-3-3—-/-5-5-5-5-5-5-5-5--|
a|-/8-8-8-8--/-3-3-3--/-5-5-5-5-5-5-5-5--|
e|-/8-8-8-8--/-3-3-3--/-5-5-5-5-5-5-5-5--|
   wind fooled the trees           it was

e|---------------------------------------|
b|---------------------------------------|
g|---------------------------------------|
d|-/8-8-8-8--/-3-3-3—-/-5-5-5-5-5-5-5-5--|
a|-/8-8-8-8--/-3-3-3--/-5-5-5-5-5-5-5-5--|
e|-/8-8-8-8--/-3-3-3--/-5-5-5-5-5-5-5-5--|
   fall that took them down         while the

e|---------------------------------------------------------------|
b|---------------------------------------------------------------|
g|---------------------------------------------------------------|
d|-/8-8-8-8-8-8-8-8-8-8-8-8-8-8-8-8--/-3-3-3—-/-5-5-5-5-5-5-5-5--|
a|-/8-8-8-8-8-8-8-8-8-8-8-8-8-8-8-8--/-3-3-3--/-5-5-5-5-5-5-5-5--|
e|-/8-8-8-8-8-8-8-8-8-8-8-8-8-8-8-8--/-3-3-3--/-5-5-5-5-5-5-5-5--|
  wind                           fooled the trees

Verse

e|-------------------------------------------------------------|
b|-------------------------------------------------------------|
g|-------------------------------------------------------------|
d|-/-5-5-5-5-5-5-5-5-5-5-5-5-5-5-5-5-5-5--/-8-8-8-8--/-3-3-3---|
a|-/-5-5-5-5-5-5-5-5-5-5-5-5-5-5-5-5-5-5--/-8-8-8-8--/-3-3-3---|
e|-/-5-5-5-5-5-5-5-5-5-5-5-5-5-5-5-5-5-5--/-8-8-8-8--/-3-3-3---|
I am here alone                            I miss the taste of

e|------------------|
b|------------------|
g|------------------|
d|-/5-5-5-5-5-5-5-5-|
a|-/5-5-5-5-5-5-5-5-|
e|-/5-5-5-5-5-5-5-5-|
  Honey

e|-------------------------------------------------------------|
b|-------------------------------------------------------------|
g|-------------------------------------------------------------|
d|-/-5-5-5-5-5-5-5-5-5-5-5-5-5-5-5-5-5-5--/-8-8-8-8--/-3-3-3---|
a|-/-5-5-5-5-5-5-5-5-5-5-5-5-5-5-5-5-5-5--/-8-8-8-8--/-3-3-3---|
e|-/-5-5-5-5-5-5-5-5-5-5-5-5-5-5-5-5-5-5--/-8-8-8-8--/-3-3-3---|
    Waiting  for   my love                   Heat the burning

e|------------------|
b|------------------|
g|------------------|
d|-/5-5-5-5-5-5-5-5-|
a|-/5-5-5-5-5-5-5-5-|
e|-/5-5-5-5-5-5-5-5-|
  flame             I

Chorus

e|---------------------------------------|
b|---------------------------------------|
g|---------------------------------------|
d|-/8-8-8-8--/-3-3-3—-/-5-5-5-5-5-5-5-5--|
a|-/8-8-8-8--/-3-3-3--/-5-5-5-5-5-5-5-5--|
e|-/8-8-8-8--/-3-3-3--/-5-5-5-5-5-5-5-5--|
  want to grow a  new  sun            I

e|---------------------------------------|
b|---------------------------------------|
g|---------------------------------------|
d|-/8-8-8-8--/-3-3-3—-/-5-5-5-5-5-5-5-5--|
a|-/8-8-8-8--/-3-3-3--/-5-5-5-5-5-5-5-5--|
e|-/8-8-8-8--/-3-3-3--/-5-5-5-5-5-5-5-5--|
  want  to grow  a new sun             I

e|---------------------------------------|
b|---------------------------------------|
g|---------------------------------------|
d|-/8-8-8-8--/-3-3-3—-/-5-5-5-5-5-5-5-5--|
a|-/8-8-8-8--/-3-3-3--/-5-5-5-5-5-5-5-5--|
e|-/8-8-8-8--/-3-3-3--/-5-5-5-5-5-5-5-5--|
  want  to grow  a new sun             I

e|---------------------------------------------------------------|
b|---------------------------------------------------------------|
g|---------------------------------------------------------------|
d|-/8-8-8-8-8-8-8-8-8-8-8-8-8-8-8-8--/-3-3-3—-/-5-5-5-5-5-5-5-5--|
a|-/8-8-8-8-8-8-8-8-8-8-8-8-8-8-8-8--/-3-3-3--/-5-5-5-5-5-5-5-5--|
e|-/8-8-8-8-8-8-8-8-8-8-8-8-8-8-8-8--/-3-3-3--/-5-5-5-5-5-5-5-5--|
  want  to   grooow                         a new sun

Bridge

e|-------------------------------------------------------|
b|-------------------------------------------------------|
g|-------------------------------------------------------|
d|-/-17-17-17-17-17-17-17-17--/-15-15-15-15-15-15-15-15--|
a|-/-17-17-17-17-17-17-17-17--/-15-15-15-15-15-15-15-15--|
e|-/-17-17-17-17-17-17-17-17--/-15-15-15-15-15-15-15-15--|

e|----------------------------------------|
b|----------------------------------------|
g|----------------------------------------|
d|-/-12-12-12---10---8---5-5-5-5-5-5-5-5--|
a|-/-12-12-12---10---8---5-5-5-5-5-5-5-5--|
e|-/-12-12-12---10---8---5-5-5-5-5-5-5-5--|

e|-------------------------------------------------------|
b|-------------------------------------------------------|
g|-------------------------------------------------------|
d|-/-17-17-17-17-17-17-17-17--/-15-15-15-15-15-15-15-15--|
a|-/-17-17-17-17-17-17-17-17--/-15-15-15-15-15-15-15-15--|
e|-/-17-17-17-17-17-17-17-17--/-15-15-15-15-15-15-15-15--|

e|----------------------------------------|
b|----------------------------------------|
g|----------------------------------------|
d|-/-12-12-12---10---8---5-5-5-5-5-5-5-5--|
a|-/-12-12-12---10---8---5-5-5-5-5-5-5-5--|
e|-/-12-12-12---10---8---5-5-5-5-5-5-5-5--|

e|-------------------------------------------------------|
b|-------------------------------------------------------|
g|-------------------------------------------------------|
d|-/-17-17-17-17-17-17-17-17--/-15-15-15-15-15-15-15-15--|
a|-/-17-17-17-17-17-17-17-17--/-15-15-15-15-15-15-15-15--|
e|-/-17-17-17-17-17-17-17-17--/-15-15-15-15-15-15-15-15--|

e|----------------------------------------|
b|----------------------------------------|
g|----------------------------------------|
d|-/-12-12-12---10---8---5-5-5-5-5-5-5-5--|
a|-/-12-12-12---10---8---5-5-5-5-5-5-5-5--|
e|-/-12-12-12---10---8---5-5-5-5-5-5-5-5--|

e|-------------------------------------------------------|
b|-------------------------------------------------------|
g|-------------------------------------------------------|
d|-/-17-17-17-17-17-17-17-17--/-15-15-15-15-15-15-15-15--|
a|-/-17-17-17-17-17-17-17-17--/-15-15-15-15-15-15-15-15--|
e|-/-17-17-17-17-17-17-17-17--/-15-15-15-15-15-15-15-15--|

e|----------------------------------------|
b|----------------------------------------|
g|----------------------------------------|
d|-/-12-12-12---10---8---5-5-5-5-5-5-5-5--|
a|-/-12-12-12---10---8---5-5-5-5-5-5-5-5--|
e|-/-12-12-12---10---8---5-5-5-5-5-5-5-5--|
                                           I
Chorus

e|---------------------------------------|
b|---------------------------------------|
g|---------------------------------------|
d|-/8-8-8-8--/-3-3-3—-/-5-5-5-5-5-5-5-5--|
a|-/8-8-8-8--/-3-3-3--/-5-5-5-5-5-5-5-5--|
e|-/8-8-8-8--/-3-3-3--/-5-5-5-5-5-5-5-5--|
  want to grow a  new  sun            I

e|---------------------------------------|
b|---------------------------------------|
g|---------------------------------------|
d|-/8-8-8-8--/-3-3-3—-/-5-5-5-5-5-5-5-5--|
a|-/8-8-8-8--/-3-3-3--/-5-5-5-5-5-5-5-5--|
e|-/8-8-8-8--/-3-3-3--/-5-5-5-5-5-5-5-5--|
  want  to grow  a new sun             I

e|---------------------------------------|
b|---------------------------------------|
g|---------------------------------------|
d|-/8-8-8-8--/-3-3-3—-/-5-5-5-5-5-5-5-5--|
a|-/8-8-8-8--/-3-3-3--/-5-5-5-5-5-5-5-5--|
e|-/8-8-8-8--/-3-3-3--/-5-5-5-5-5-5-5-5--|
  want  to grow  a new sun             I

e|---------------------------------------------------------------|
b|---------------------------------------------------------------|
g|---------------------------------------------------------------|
d|-/8-8-8-8-8-8-8-8-8-8-8-8-8-8-8-8--/-3-3-3—-/-5-5-5-5-5-5-5-5--|
a|-/8-8-8-8-8-8-8-8-8-8-8-8-8-8-8-8--/-3-3-3--/-5-5-5-5-5-5-5-5--|
e|-/8-8-8-8-8-8-8-8-8-8-8-8-8-8-8-8--/-3-3-3--/-5-5-5-5-5-5-5-5--|
  want  to   grooow                         a new sun
 


9.	Sealed With Thorns

Intro : A – F(open) – C
        0   0         0
        0   1         1
        2   2         0
        2   3         2
        0   0         3
        x   x         x

Verse

   A          F      C
Decapitated male bodies,

   A              F   C
Flying through the sky

A                 F      C
Sowing their seed on the land

        A          F   C
While women come outside

Chorus

A              E    F      G
Why can’t we reach higher? Higher?

A              E    F      G
Our minds are sealed with thorns

Verse

     A           F      G
The women gather in the streets

   A             F     G
To go back to the fields

  A              F     G
Where they will give birth to

A                 F G
Headless children

Chorus

A              E    F      G
Why can’t we reach higher? Higher?

A              E    F      G
Our minds are sealed with thorns

Solo



10.	2 Young Boys

Intro

e|-------------------------------|
b|-------------------------------|
g|-6-----------------------------|
d|-6—keep strumming--------------|
a|-4-----------------------------|
e|-------------------------------|
There’re 2 young boys in the river trying to drown x4

Verse

e|--------------------------------------------------------|
b|---5---------------------------5-------4-6-4-----4-6-4--|
g|-6--------4-6—-4-----4-6---4-6----4-6---------6---------|
d|------4-6---------6-------------------------------------|
a|--------------------------------------------------------|
e|--------------------------------------------------------|x2

e|----------------------------------------------|
b|----------------------------------------------|
g|--6-6-6-6-6-6-6-6-6-6-6-6-6-6----14-14-14-14--|
d|--6-6-6-6-6-6-6-6-6-6-6-6-6-6----14-14-14-14--|
a|--4-4-4-4-4-4-4-4-4-4-4-4-4-4----12-12-12-12--|
e|----------------------------------------------|x4

e|-----------------------------------------------------|
b|-----------------------------------------------------|
g|--6-------------------------------------14-14-14-14--|
d|--6--keep strumming---------------------14-14-14-14--|
a|--4-------------------------------------12-12-12-12--|
e|-----------------------------------------------------|x4
a bridge, a man and the will to fall down

e|--------------------------------------------------------|
b|---5---------------------------5-------4-6-4-----4-6-4--|
g|-6--------4-6—-4-----4-6---4-6----4-6---------6---------|
d|------4-6---------6-------------------------------------|
a|--------------------------------------------------------|
e|--------------------------------------------------------|x2

Bridge
 
e|-------------------|
b|-------------------|
g|--2-------------6--|
d|--2------2------6--|
a|--0------2------4--|
e|---------0---------|
   one and one is 2, she said

e|-------------------|
b|-------------------|
g|--2-------------6--|
d|--2------2------6--|
a|--0------2------4--|
e|---------0---------|
     and she carved 13 legends into my skin

e|-------------------|
b|-------------------|
g|--2-------------6--|
d|--2------2------6--|
a|--0------2------4--|
e|---------0---------|
      let’s make love a thousand times

e|-------------------|
b|-------------------|
g|--2-------------6--|
d|--2------2------6--|
a|--0------2------4--|
e|---------0---------|
     and then, never again

Solo

Use these 2 chords and go crazy! ;p

e|----------------|
b|----------------|
g|--14--------6---|
d|--14--------6---|
a|--12--------4---|
e|----------------|
 


11.	Lonely Hearts

Intro

e|-/8-6-3------------------------------------------|
b|---------5---5h7---5h7-5-------------------------|
g|---------------------------7-5---3h5p3h5p3h5p3…--|
d|-------------------------------------------------|
a|-------------------------------------------------|
e|-------------------------------------------------|

e|-------------------------------------------------|
b|-----3------------3-----------3-----------3------|
g|-3-5----3-5---3-5---3-5---3-5---3-5---3-5---3-5--|
d|-------------------------------------------------|
a|-------------------------------------------------|
e|-------------------------------------------------|

e|------------------|
b|------------------|
g|---5---5---5---5--|
d|---5---5---5---5--|
a|-3---3---3---3----|
e|------------------| x2

e|-6-5-3----------------6-5-3-------------------------|
b|-----------------------------5-5h7----7-5-7-5-------|
g|-------5-5-5-5-5-5-5-5---------------------------5--|
d|-------5-5-5-5-5-5-5-5------------------------------|
a|------3-3-3-3-3-3-3-3-------------------------------|
e|----------------------------------------------------|

e|------------------|
b|------------------|
g|---5---5---5---5--|
d|---5---5---5---5--|
a|-3---3---3---3----|
e|------------------|

e|-------------------------|
b|-----3------------3------|
g|-3-5----3-5---3-5---3-5--|
d|-------------------------|
a|-------------------------|
e|-------------------------|x2

e|------------------|
b|------------------|
g|---5---5---5---5--|
d|---5---5---5---5--|
a|-3---3---3---3----|
e|------------------| x2
 
Verse

e|-----------------------------------------|
b|-----------------------------------------|
g|---5---5---5---5---5---5---5---5---------|
d|---5---5---5---5---5---5---5---5---------|
a|-3---3---3---3---3---3---3---3-----------|
e|-----------------------------------------|
Here I’m standing in our empty

e|-----------------------------------------|
b|-----------------------------------------|
g|---5---5---5---5---5---5---5---5---------|
d|---5---5---5---5---5---5---5---5---------|
a|-3---3---3---3---3---3---3---3-----------|
e|-----------------------------------------|
house

e|-----------------------------------------|
b|-----------------------------------------|
g|---5---5---5---5---5---5---5---5---------|
d|---5---5---5---5---5---5---5---5---------|
a|-3---3---3---3---3---3---3---3-----------|
e|-----------------------------------------|
   All my memories in a box

e|-----------------------------------------|
b|-----------------------------------------|
g|---5---5---5---5---5---5---5---5---------|
d|---5---5---5---5---5---5---5---5---------|
a|-3---3---3---3---3---3---3---3-----------|
e|-----------------------------------------|

e|-----------------------------------------|
b|-----------------------------------------|
g|---5---5---5---5---5---5---5---5---------|
d|---5---5---5---5---5---5---5---5---------|
a|-3---3---3---3---3---3---3---3-----------|
e|-----------------------------------------|
Loved my mother, loved my dad

e|-----------------------------------------|
b|-----------------------------------------|
g|---5---5---5---5---5---5---5---5---------|
d|---5---5---5---5---5---5---5---5---------|
a|-3---3---3---3---3---3---3---3-----------|
e|-----------------------------------------|
Could I bring them back with my last

e|-----------------------------------------|
b|-----------------------------------------|
g|---5---5---5---5---5---5---5---5---------|
d|---5---5---5---5---5---5---5---5---------|
a|-3---3---3---3---3---3---3---3-----------|
e|-----------------------------------------|
breath

e|-----------------------------------------|
b|-----------------------------------------|
g|---5---5---5---5---5---5---5---5---------|
d|---5---5---5---5---5---5---5---5---------|
a|-3---3---3---3---3---3---3---3-----------|
e|-----------------------------------------|
Love my children love my wife

e|-----------------------------------------|
b|-----------------------------------------|
g|---5---5---5---5---5---5---5---5---------|
d|---5---5---5---5---5---5---5---5---------|
a|-3---3---3---3---3---3---3---3-----------|
e|-----------------------------------------|
she’s the one who keeps me   alive

e|-----------------------------------------|
b|-----------------------------------------|
g|---5---5---5---5---5---5---5---5---------|
d|---5---5---5---5---5---5---5---5---------|
a|-3---3---3---3---3---3---3---3-----------|
e|-----------------------------------------|

e|-----------------------------------------|
b|-----------------------------------------|
g|---5---5---5---5---5---5---5---5---------|
d|---5---5---5---5---5---5---5---5---------|
a|-3---3---3---3---3---3---3---3-----------|
e|-----------------------------------------|

Chorus

e|-6-5-3----------------6-5-3-------------------------|
b|-----------------------------5-5h7----7-5-7-5-------|
g|-------5-5-5-5-5-5-5-5---------------------------5--|
d|-------5-5-5-5-5-5-5-5------------------------------|
a|------3-3-3-3-3-3-3-3-------------------------------|
e|----------------------------------------------------|
Come on                 come on with me to a better place
 
e|-6-5-3----------------6-5-3-------------------------|
b|-----------------------------5-5h7----7-5-7-5-------|
g|-------5-5-5-5-5-5-5-5---------------------------5--|
d|-------5-5-5-5-5-5-5-5------------------------------|
a|------3-3-3-3-3-3-3-3-------------------------------|
e|----------------------------------------------------|
Come on                come on with me to a better place

e|------------------|
b|------------------|
g|---5---5---5---5--|
d|---5---5---5---5--|
a|-3---3---3---3----|
e|------------------|

e|-------------------------|
b|-----3------------3------|
g|-3-5----3-5---3-5---3-5--|
d|-------------------------|
a|-------------------------|
e|-------------------------| x2

e|------------------|
b|------------------|
g|---5---5---5---5--|
d|---5---5---5---5--|
a|-3---3---3---3----|
e|------------------|x2

Verse

e|-----------------------------------------|
b|-----------------------------------------|
g|---5---5---5---5---5---5---5---5---------|
d|---5---5---5---5---5---5---5---5---------|
a|-3---3---3---3---3---3---3---3-----------|
e|-----------------------------------------|
She knows that

e|-----------------------------------------|
b|-----------------------------------------|
g|---5---5---5---5---5---5---5---5---------|
d|---5---5---5---5---5---5---5---5---------|
a|-3---3---3---3---3---3---3---3-----------|
e|-----------------------------------------|
he’s a friend of hers
 
e|-----------------------------------------|
b|-----------------------------------------|
g|---5---5---5---5---5---5---5---5---------|
d|---5---5---5---5---5---5---5---5---------|
a|-3---3---3---3---3---3---3---3-----------|
e|-----------------------------------------|
  Told me he’s gentle still I’m not

e|-----------------------------------------|
b|-----------------------------------------|
g|---5---5---5---5---5---5---5---5---------|
d|---5---5---5---5---5---5---5---5---------|
a|-3---3---3---3---3---3---3---3-----------|
e|-----------------------------------------|
  sure

e|-----------------------------------------|
b|-----------------------------------------|
g|---5---5---5---5---5---5---5---5---------|
d|---5---5---5---5---5---5---5---5---------|
a|-3---3---3---3---3---3---3---3-----------|
e|-----------------------------------------|
I’m scared

e|-----------------------------------------|
b|-----------------------------------------|
g|---5---5---5---5---5---5---5---5---------|
d|---5---5---5---5---5---5---5---5---------|
a|-3---3---3---3---3---3---3---3-----------|
e|-----------------------------------------|
I’m quiet

e|-----------------------------------------|
b|-----------------------------------------|
g|---5---5---5---5---5---5---5---5---------|
d|---5---5---5---5---5---5---5---5---------|
a|-3---3---3---3---3---3---3---3-----------|
e|-----------------------------------------|
I’m gone

e|-----------------------------------------|
b|-----------------------------------------|
g|---5---5---5---5---5---5---5---5---------|
d|---5---5---5---5---5---5---5---5---------|
a|-3---3---3---3---3---3---3---3-----------|
e|-----------------------------------------|

e|-----------------------------------------|
b|-----------------------------------------|
g|---5---5---5---5---5---5---5---5---------|
d|---5---5---5---5---5---5---5---5---------|
a|-3---3---3---3---3---3---3---3-----------|
e|-----------------------------------------|
I’m scared

e|-----------------------------------------|
b|-----------------------------------------|
g|---5---5---5---5---5---5---5---5---------|
d|---5---5---5---5---5---5---5---5---------|
a|-3---3---3---3---3---3---3---3-----------|
e|-----------------------------------------|
I’m quiet

e|-----------------------------------------|
b|-----------------------------------------|
g|---5---5---5---5---5---5---5---5---------|
d|---5---5---5---5---5---5---5---5---------|
a|-3---3---3---3---3---3---3---3-----------|
e|-----------------------------------------|
I’m gone

e|-----------------------------------------|
b|-----------------------------------------|
g|---5---5---5---5---5---5---5---5---------|
d|---5---5---5---5---5---5---5---5---------|
a|-3---3---3---3---3---3---3---3-----------|
e|-----------------------------------------|
I am gone

Chorus

e|-6-5-3----------------6-5-3-------------------------|
b|-----------------------------5-5h7----7-5-7-5-------|
g|-------5-5-5-5-5-5-5-5---------------------------5--|
d|-------5-5-5-5-5-5-5-5------------------------------|
a|------3-3-3-3-3-3-3-3-------------------------------|
e|----------------------------------------------------|
Come on                come on with me to a better place

e|-6-5-3----------------6-5-3-------------------------|
b|-----------------------------5-5h7----7-5-7-5-------|
g|-------5-5-5-5-5-5-5-5---------------------------5--|
d|-------5-5-5-5-5-5-5-5------------------------------|
a|------3-3-3-3-3-3-3-3-------------------------------|
e|----------------------------------------------------|
Come on                come on with me to a better place

e|------------------|
b|------------------|
g|---5---5---5---5--|
d|---5---5---5---5--|
a|-3---3---3---3----|
e|------------------|

e|-------------------------|
b|-----3------------3------|
g|-3-5----3-5---3-5---3-5--|
d|-------------------------|
a|-------------------------|
e|-------------------------| x2

Solo



All songs by Jan Paternoster
Tabs by Brecht Vandeweyer
comments
print report bad tab
2 comments total.
0 reply
Bertjn95 wrote on October 6 2011, 01:19 pm

Enjoy and please, feel free to comment or add any correction.

+1 reply
Bladerkeuh wrote on November 23 2011, 10:04 am

Very good basis, but not always that accurate
Very good job though, thanks to this tabs, making your own tabs is made that much more easy!

I want to post or [tab]
guest
You may want to rate the tab now too:
select rating
Please do not post tabs as comments. Select "correction" instead!