Oops, an error
Loading. Please wait.

Children Of The Night Tab

ver1
ver1

Whole song

Interactive

More versions @911Tabs.com
17,454 views 12 this week
14 commentsread comments
1 2 3 4 5
excellent!
x 6
Autoscroll
+/-
esc
set tempo
stop
Contributor
WARNING: You are trying to view
                                    content from Ultimate-Guitar.com
                                    in an unauthorized application,
                                    which is prohibited.

                                    Please use an official Ultimate
                                    Guitar Tabs application for iPhone,
                                    iPad or Android to access legitimate
                                    chords, guitar, bass, and drum tabs
                                    from Ultimate-Guitar.com database.

                                    Type "ultimate guitar tabs" in Apple
                                    App Store's or Android Market's
                                    search to find the application.
---------------------------------------------------------------------------
                  Children Of The Night – The Blackout
---------------------------------------------------------------------------
Tabbed by : The Theory
Email : connorfranklin@hotmail.co.uk

Tuning:Drop D

This Is My First Tab I've Ever Written And Is The First Tab On Ultimate Guitar For This Song

I Learned This Song By Ear

Correct Me If Theres Any Wrong Parts

Verse
   Guitar 1
e|------------------------------------------------------------------------|
B|------------------------------------------------------------------------|
G|------------------------------------------------------------------------|
D|----6-4-6-4-6------6-4-6-4-6-----------2-0-2-0-2--------2-0-2-0-2-------|
A|----6-4-6-4-6------6-4-6-4-6-----------2-0-2-0-2--------2-0-2-0-2-------|
D|----6-4-6-4-6------6-4-6-4-6-----------2-0-2-0-2--------2-0-2-0-2-------|

   Guitar 2
e|------------------------------------------------------------------------|
B|------------4-4-4-4-4-4----4-4-0-0-0-0-0-------0-0-0-0-0------0-0-0-0-0-|
G|------------------------------------------------------------------------|
D|------------------------------------------------------------------------|
A|------------------------------------------------------------------------|
D|------------------------------------------------------------------------|

Guitar 1
e|------------------------------------------------------------------------|
B|------------------------------------------------------------------------|
G|------------------------------------------------------------------------|
D|----6-4-6-4-6------6-4-6-4-6-----------2-0-2-0-2--------2-0-2-0-2-------|
A|----6-4-6-4-6------6-4-6-4-6-----------2-0-2-0-2--------2-0-2-0-2-------|
D|----6-4-6-4-6------6-4-6-4-6-----------2-0-2-0-2--------2-0-2-0-2-------|

   Guitar 2
e|------------------------------------------------------------------------|
B|------------4-4-7-7-2-2-4-4--4-4-7-7-2-2-4-4---0-0-0-0-0------0-0-0-0-0-|
G|------------------------------------------------------------------------|
D|------------------------------------------------------------------------|
A|------------------------------------------------------------------------|
D|------------------------------------------------------------------------|

Chorus
   Guitar 1                                                              X2
e|------------------------------------------------------------------------|
B|------------------------------------------------------------------------|
G|--13-13-13-13-13-13-13-13-16-16-16-16-15-15-15-15-1111111111111111------|
D|---x--x--x--x--x--x--x--x--x--x--x--x--x--x--x--x-x-x-x-x-x-x-x-x-------|
A|--11-11-11-11-11-11-11-11-14-14-14-14-13-13-13-13-9-9-9-9-9-9-9-9-------|
D|------------------------------------------------------------------------|

   Guitar 2
e|------------------------------------------------------------------------|
B|------------------------------------------------------------------------|
G|------------------------------------------------------------------------|
D|--6-6-6-6-6-6-6-6-6-6-6-6-6-6-6-6-6-6-6-6-6-6-6-6-2-2-2-2-2-2-2-2-2-----|
A|--6-6-6-6-6-6-6-6-6-6-6-6-6-6-6-6-6-6-6-6-6-6-6-6-2-2-2-2-2-2-2-2-2-----|
D|--6-6-6-6-6-6-6-6-6-6-6-6-6-6-6-6-6-6-6-6-6-6-6-6-2-2-2-2-2-2-2-2-2-----|

   Guitar 1
e|------------------------------------------------------------------------|
B|------------------------------------------------------------------------|
G|--16-16-16-16-15-15-15-15-9-9-9-9-9-9-9-9-16-16-16-16-15-15-15-15-------|
D|---x--x--x--x--x--x--x--x-x-x-x-x-x-x-x-x--x--x--x--x--x--x--x--x-------|
A|--14-14-14-14-13-13-13-13-7-7-7-7-7-7-7-7-14-14-14-14-13-13-13-13-------|
D|------------------------------------------------------------------------|
   Guitar 2
e|------------------------------------------------------------------------|
B|------------------------------------------------------------------------|
G|--------------------------5-5-5-5-5-5-5-5-5-5-5-5-5-5-5-5-5-5-5-5-------|
D|--2-2-2-2-2-2-2-2-2-2-2-2-5-5-5-5-5-5-5-5-5-5-5-5-5-5-5-5-5-5-5-5-------|
A|--2-2-2-2-2-2-2-2-2-2-2-2-4-4-4-4-4-4-4-4-4-4-4-4-4-4-4-4-4-4-4-4-------|
D|--2-2-2-2-2-2-2-2-2-2-2-2-----------------------------------------------|
   Guitar 1
e|------------------------------------------------------------------------|
B|------------------------------------------------------------------------|
G|--18-18-18-18-18-18-18-18-16-16-16-16-15-15-15-15-----------------------|
D|---x--x--x--x--x--x--x--x--x--x--x--x--x--x--x--x-----------------------|
A|--16-16-16-16-16-16-16-16-14-14-14-14-13-13-13-13-----------------------|
D|------------------------------------------------------------------------|
   Guitar 2
e|------------------------------------------------------------------------|
B|------------------------------------------------------------------------|
G|------------------------------------------------------------------------|
D|--2-2-2-2-2-2-2-2-2-2-2-2-2-2-2-2-2-2-2-2-2-2-2-2-----------------------|
A|--2-2-2-2-2-2-2-2-2-2-2-2-2-2-2-2-2-2-2-2-2-2-2-2-----------------------|
E|--2-2-2-2-2-2-2-2-2-2-2-2-2-2-2-2-2-2-2-2-2-2-2-2-----------------------|


   Guitar 1
e|------------------------------------------------------------------------|
B|------------------------------------------------------------------------|
G|--16-16-16-16-16-16-15-15-16-16-16-16-16-16-15-15-16-16-16-16-16-16-15--|
D|---x--x--x--x--x--x--x--x--x--x--x--x--x--x--x--x--x--x--x--x--x--x--x--|
A|--14-14-14-14-14-14-13-13-14-14-14-14-14-14-13-13-14-14-14-14-14-14-16--|
D|------------------------------------------------------------------------|

   Guitar 2
e|------------------------------------------------------------------------|
B|------------------------------------------------------------------------|
G|--------------------------------------------------5-5-5-5-5-5-5-5-5-5-5-|
D|--6-6-6-6-6-6-6-6-6-4-4-6-6-6-6-6-6-6-6-6-6-6-4-4-5-5-5-5-5-5-5-5-5-5-5-|
A|--6-6-6-6-6-6-6-6-6-4-4-6-6-6-6-6-6-6-6-6-6-6-4-4-4-4-4-4-4-4-4-4-4-4-4-|
D|--6-6-6-6-6-6-6-6-6-4-4-6-6-6-6-6-6-6-6-6-6-6-4-4-----------------------|

   Guitar 1
e|------------------------------------------------------------------------|
B|------------------------------------------------------------------------|
G|--18-16-16-16-16-16-16-15-15--------------------------------------------|
D|---x--x--x--x--x--x--x--x--x--------------------------------------------|
A|--16-14-14-14-14-14-14-13-13--------------------------------------------|
D|------------------------------------------------------------------------|

   Guitar 2
e|------------------------------------------------------------------------|
B|------------------------------------------------------------------------|
G|------------------------------------------------------------------------|
D|-----2-2-2-2-2-2-2-2-2-2-2-2--------------------------------------------|
A|-----2-2-2-2-2-2-2-2-2-2-2-2--------------------------------------------|
D|-----2-2-2-2-2-2-2-2-2-2-2-2--------------------------------------------|

Verse 2
   Guitar 1
e|------------------------------------------------------------------------|
B|------------------------------------------------------------------------|
G|------------------------------------------------------------------------|
D|----6-4-6-4-6------6-4-6-4-6-----------2-0-2-0-2--------2-0-2-0-2-------|
A|----6-4-6-4-6------6-4-6-4-6-----------2-0-2-0-2--------2-0-2-0-2-------|
D|----6-4-6-4-6------6-4-6-4-6-----------2-0-2-0-2--------2-0-2-0-2-------|

   Guitar 2
e|------------------------------------------------------------------------|
B|------------4-4-7-7-2-2-4-4--4-4-7-7-2-2-4-4---0-0-0-0-0------0-0-0-0-0-|
G|------------------------------------------------------------------------|
D|------------------------------------------------------------------------|
A|------------------------------------------------------------------------|
D|------------------------------------------------------------------------|

   Guitar 1  |---PM--|     |----PM----|        |----PM----|      |---PM---|
e|------------------------------------------------------------------------|
B|------------------------------------------------------------------------|
G|------------------------------------------------------------------------|
D|----6-4-6-4-6-6-6-6-4-6-4-6-6-6-6-6-6-2-0-2-0-2-2-2-2-2-2-0-2-0-2-2-2-2-|
A|----6-4-6-4-6-6-6-6-4-6-4-6-6-6-6-6-6-2-0-2-0-2-2-2-2-2-2-0-2-0-2-2-2-2-|
D|----6-4-6-4-6-6-6-6-4-6-4-6-6-6-6-6-6-2-0-2-0-2-2-2-2-2-2-0-2-0-2-2-2-2-|

Chorus
   Guitar 1                                                              X2
e|------------------------------------------------------------------------|
B|------------------------------------------------------------------------|
G|--13-13-13-13-13-13-13-13-16-16-16-16-15-15-15-15-1111111111111111------|
D|---x--x--x--x--x--x--x--x--x--x--x--x--x--x--x--x-x-x-x-x-x-x-x-x-------|
A|--11-11-11-11-11-11-11-11-14-14-14-14-13-13-13-13-9-9-9-9-9-9-9-9-------|
D|------------------------------------------------------------------------|

   Guitar 2
e|------------------------------------------------------------------------|
B|------------------------------------------------------------------------|
G|------------------------------------------------------------------------|
D|--6-6-6-6-6-6-6-6-6-6-6-6-6-6-6-6-6-6-6-6-6-6-6-6-2-2-2-2-2-2-2-2-2-----|
A|--6-6-6-6-6-6-6-6-6-6-6-6-6-6-6-6-6-6-6-6-6-6-6-6-2-2-2-2-2-2-2-2-2-----|
D|--6-6-6-6-6-6-6-6-6-6-6-6-6-6-6-6-6-6-6-6-6-6-6-6-2-2-2-2-2-2-2-2-2-----|

   Guitar 1
e|------------------------------------------------------------------------|
B|------------------------------------------------------------------------|
G|--16-16-16-16-15-15-15-15-9-9-9-9-9-9-9-9-16-16-16-16-15-15-15-15-------|
D|---x--x--x--x--x--x--x--x-x-x-x-x-x-x-x-x--x--x--x--x--x--x--x--x-------|
A|--14-14-14-14-13-13-13-13-7-7-7-7-7-7-7-7-14-14-14-14-13-13-13-13-------|
D|------------------------------------------------------------------------|

   Guitar 2
e|------------------------------------------------------------------------|
B|------------------------------------------------------------------------|
G|--------------------------5-5-5-5-5-5-5-5-5-5-5-5-5-5-5-5-5-5-5-5-------|
D|--2-2-2-2-2-2-2-2-2-2-2-2-5-5-5-5-5-5-5-5-5-5-5-5-5-5-5-5-5-5-5-5-------|
A|--2-2-2-2-2-2-2-2-2-2-2-2-4-4-4-4-4-4-4-4-4-4-4-4-4-4-4-4-4-4-4-4-------|
D|--2-2-2-2-2-2-2-2-2-2-2-2-----------------------------------------------|

   Guitar 1
e|------------------------------------------------------------------------|
B|------------------------------------------------------------------------|
G|--18-18-18-18-18-18-18-18-16-16-16-16-15-15-15-15-----------------------|
D|---x--x--x--x--x--x--x--x--x--x--x--x--x--x--x--x-----------------------|
A|--16-16-16-16-16-16-16-16-14-14-14-14-13-13-13-13-----------------------|
D|------------------------------------------------------------------------|

   Guitar 2
e|------------------------------------------------------------------------|
B|------------------------------------------------------------------------|
G|------------------------------------------------------------------------|
D|--2-2-2-2-2-2-2-2-2-2-2-2-2-2-2-2-2-2-2-2-2-2-2-2-----------------------|
A|--2-2-2-2-2-2-2-2-2-2-2-2-2-2-2-2-2-2-2-2-2-2-2-2-----------------------|
E|--2-2-2-2-2-2-2-2-2-2-2-2-2-2-2-2-2-2-2-2-2-2-2-2-----------------------|

   Guitar 1 & 2
e|------------------------------------------------------------------------|
B|------------------------------------------------------------------------|
G|------------------------------------------------------------------------|
D|--------------------------6-4-6----------------------6-4-6--------------|
A|--------------------------6-4-6----------------------6-4-6--------------|
D|--------------------------6-4-6----------------------6-4-6--------------|

e|------------------------------------------------------------------------|
B|------------------------------------------------------------------------|
G|------------------------------------------------------------------------|
D|---------------------------6-4-6----------------------------------------|
A|---------------------------6-4-6----------------------------------------|
D|---------------------------6-4-6----------------------------------------|

e|------------------------------------------------------------------------|
B|------------------------------------------------------------------------|
G|--------------------------------------------------5--5--5--5--5--5--5---|
D|--6-4-6--6--6--6--6--6--6-4-6--6--6--6--6--6--6-4-5--5--5--5--5--5--5---|
A|--6-4-6--6--6--6--6--6--6-4-6--6--6--6--6--6--6-4-4--4--4--4--4--4--4---|
D|--6-4-6--6--6--6--6--6--6-4-6--6--6--6--6--6--6-4-----------------------|

e|------------------------------------------------------------------------|
B|------------------------------------------------------------------------|
G|--4-5--5--5--5--5--5--5--4----------------------------------------------|
D|--4-5--5--5--5--5--5--5--4----------------------------------------------|
A|--2-4--4--4--4--4--4--4--2----------------------------------------------|
D|------------------------------------------------------------------------|

e|------------------------------------------------------------------------|
B|------------------------------------------------------------------------|
G|--------------------------------------------------5--5--5--5--5--5--5---|
D|--6-4-6--6--6--6--6--6--6-4-6--6--6--6--6--6--6-4-5--5--5--5--5--5--5---|
A|--6-4-6--6--6--6--6--6--6-4-6--6--6--6--6--6--6-4-4--4--4--4--4--4--4---|
D|--6-4-6--6--6--6--6--6--6-4-6--6--6--6--6--6--6-4-----------------------|

e|------------------------------------------------------------------------|
B|------------------------------------------------------------------------|
G|--4-5--5--5--5--5--5--5--4----------------------------------------------|
D|--4-5--5--5--5--5--5--5--4--6----------------------------2--------------|
A|--2-4--4--4--4--4--4--4--2--6----------------------------2--------------|
D|----------------------------6----------------------------2--------------|

e|------------------------------------------------------------------------|
B|------------------------------------------------------------------------|
G|-------5----------------------------------------------------------------|
D|-------5-----------------2----------------------------------------------|
A|-------4-----------------2----------------------------------------------|
D|-------------------------2----------------------------------------------|

   Guitar 1
e|------------------------------------------------------------------------|
B|------------------------------------------------------------------------|
G|--16-16-16-16-16-16-15-15-16-16-16-16-16-16-15-15-16-16-16-16-16-16-15--|
D|---x--x--x--x--x--x--x--x--x--x--x--x--x--x--x--x--x--x--x--x--x--x--x--|
A|--14-14-14-14-14-14-13-13-14-14-14-14-14-14-13-13-14-14-14-14-14-14-16--|
D|------------------------------------------------------------------------|

   Guitar 2
e|------------------------------------------------------------------------|
B|------------------------------------------------------------------------|
G|--------------------------------------------------5-5-5-5-5-5-5-5-5-5-5-|
D|--6-6-6-6-6-6-6-6-6-4-4-6-6-6-6-6-6-6-6-6-6-6-4-4-5-5-5-5-5-5-5-5-5-5-5-|
A|--6-6-6-6-6-6-6-6-6-4-4-6-6-6-6-6-6-6-6-6-6-6-4-4-4-4-4-4-4-4-4-4-4-4-4-|
D|--6-6-6-6-6-6-6-6-6-4-4-6-6-6-6-6-6-6-6-6-6-6-4-4-----------------------|


e|------------------------------------------------------------------------|
B|------------------------------------------------------------------------|
G|--18-16-16-16-16-16-16-15-15--------------------------------------------|
D|---x--x--x--x--x--x--x--x--x--------------------------------------------|
A|--16-14-14-14-14-14-14-13-13--------------------------------------------|
D|------------------------------------------------------------------------|

   Guitar 2
e|------------------------------------------------------------------------|
B|------------------------------------------------------------------------|
G|------------------------------------------------------------------------|
D|-----2-2-2-2-2-2-2-2-2-2-2-2--------------------------------------------|
A|-----2-2-2-2-2-2-2-2-2-2-2-2--------------------------------------------|
D|-----2-2-2-2-2-2-2-2-2-2-2-2--------------------------------------------|


   Guitar 1
e|------------------------------------------------------------------------|
B|------------------------------------------------------------------------|
G|--16-16-16-16-16-16-15-15-16-16-16-16-16-16-15-15-16-16-16-16-16-16-15--|
D|---x--x--x--x--x--x--x--x--x--x--x--x--x--x--x--x--x--x--x--x--x--x--x--|
A|--14-14-14-14-14-14-13-13-14-14-14-14-14-14-13-13-14-14-14-14-14-14-16--|
D|------------------------------------------------------------------------|

   Guitar 2
e|------------------------------------------------------------------------|
B|------------------------------------------------------------------------|
G|--------------------------------------------------5-5-5-5-5-5-5-5-5-5-5-|
D|--6-6-6-6-6-6-6-6-6-4-4-6-6-6-6-6-6-6-6-6-6-6-4-4-5-5-5-5-5-5-5-5-5-5-5-|
A|--6-6-6-6-6-6-6-6-6-4-4-6-6-6-6-6-6-6-6-6-6-6-4-4-4-4-4-4-4-4-4-4-4-4-4-|
D|--6-6-6-6-6-6-6-6-6-4-4-6-6-6-6-6-6-6-6-6-6-6-4-4-----------------------|

   Guitar 1
e|------------------------------------------------------------------------|
B|------------------------------------------------------------------------|
G|--18-16-16-16-16-16-16-15-15--------------------------------------------|
D|---x--x--x--x--x--x--x--x--x--------------------------------------------|
A|--16-14-14-14-14-14-14-13-13--------------------------------------------|
D|------------------------------------------------------------------------|

   Guitar 2
e|------------------------------------------------------------------------|
B|------------------------------------------------------------------------|
G|------------------------------------------------------------------------|
D|-----2-2-2-2-2-2-2-2-2-2-2-2--------------------------------------------|
A|-----2-2-2-2-2-2-2-2-2-2-2-2--------------------------------------------|
D|-----2-2-2-2-2-2-2-2-2-2-2-2--------------------------------------------|

   Guitar 1 & 2
e|------------------------------------------------------------------------|
B|---------------------------------------4~-------------------------------|
G|------------------------------------------------------------------------|
D|--6--6--6--6--6--6--4-4--6--6--6--6-------------------------------------|
A|--6--6--6--6--6--6--4-4--6--6--6--6-------------------------------------|
D|--6--6--6--6--6--6--4-4--6--6--6--6-------------------------------------|

e|------------------------------------------------------------------------|
B|---------------------------------------4~-------------------------------|
G|------------------------------------------------------------------------|
D|--6--6--6--6--6--6--4-4--6--6--6--6-------------------------------------|
A|--6--6--6--6--6--6--4-4--6--6--6--6-------------------------------------|
D|--6--6--6--6--6--6--4-4--6--6--6--6-------------------------------------|

e|------------------------------------------------------------------------|
B|---------------------------------------4~-------------------------------|
G|------------------------------------------------------------------------|
D|--6--6--6--6--6--6--4-4--6--6--6--6-------------------------------------|
A|--6--6--6--6--6--6--4-4--6--6--6--6-------------------------------------|
D|--6--6--6--6--6--6--4-4--6--6--6--6-------------------------------------|

e|------------------------------------------------------------------------|
B|------------------------------------------------------------------------|
G|------------------------------------------------------------------------|
D|--6--6--6--6--6--6--4-4--6--6--6--6-------------------------------------|
A|--6--6--6--6--6--6--4-4--6--6--6--6-------------------------------------|
D|--6--6--6--6--6--6--4-4--6--6--6--6-------------------------------------|


| /  slide up
| \  slide down
| h  hammer-on
| p  pull-off
| ~  vibrato
| +  harmonic
| x  Mute note

---------------------------------------------------------------------------|
---------------------------------------------------------------------------|
comments
print report bad tab
14 comments total. Showing first comments.
+2 reply
AvAHixson wrote on June 2 2009, 02:58 pm

Pretty much perfect from what I can hear..

5 Starts from me :)

+1 reply
craigchaotic wrote on June 3 2009, 03:12 pm

Brilliant tab !
5 Starz !

+2 reply
The Theory wrote on June 3 2009, 03:14 pm

Thanks lmao took me bout 3 hours to tab it out

I want to post or [tab]
guest
You may want to rate the tab now too:
select rating
Please do not post tabs as comments. Select "correction" instead!