Oops, an error
Loading. Please wait.

Higher And Higher Tab

ver2
ver2

Whole song

Interactive

More versions @911Tabs.com
2,528 views 1 this week
1 commentread comment
1 2 3 4 5
accurate
x 4
Autoscroll
+/-
esc
set tempo
stop
Contributor
Difficulty
Tuning
intermediate
D A D G B E
Hey! There's an official Ultimate Guitar app which is ideal
for learning songs when you're away from computer. Get the app
WARNING: You are trying to view
                                    content from Ultimate-Guitar.com
                                    in an unauthorized application,
                                    which is prohibited.

                                    Please use an official Ultimate
                                    Guitar Tabs application for iPhone,
                                    iPad or Android to access legitimate
                                    chords, guitar, bass, and drum tabs
                                    from Ultimate-Guitar.com database.

                                    Type "ultimate guitar tabs" in Apple
                                    App Store's or Android Market's
                                    search to find the application.
-------------------------------------------------------------------------------
                             HIGHER AND HIGHER - The Blackout
-------------------------------------------------------------------------------
Tabbed by: Sam Morris
Email: morris.sam@live.co.uk

Tuning: Drop D

INTRO

e|---------------------------------------------------------------------------|
B|---------------------------------------------------------------------------|
G|---------------------------------------------------------------------------|
D|---------------------------------------------------------------------------|
A|---------------------------------------------------1--1------1--1------1---|
D|-5--5-3--3-5--5-3--3-5--3-5--5-3--3-5--5-3--3-5--3------1--1------1--1----1|

(Both Guitars)
e|---------------------------------------------------------------------------|
B|---------------------------------------------------------------------------|
G|---------------------------------------------------3--3------3--3------3---|
D|-5--5-3--3-5--5-3--3-5--3-5--5-3--3-5--5-3--3-5--3-3--3-1--1-3--3-1--1-3--1|
A|-5--5-3--3-5--5-3--3-5--3-5--5-3--3-5--5-3--3-5--3-1--1-1--1-1--1-1--1-1--1|
D|-5--5-3--3-5--5-3--3-5--3-5--5-3--3-5--5-3--3-5--3------1--1------1--1----1|

e|---------------------------------------------------------------------------|
B|---------------------------------------------------------------------------|
G|---------------------------------------------------3--3------3--3------3---|
D|-5--5-3--3-5--5-3--3-5--3-5--5-3--3-5--5-3--3-5--3-3--3-1--1-3--3-1--1-3--1|
A|-5--5-3--3-5--5-3--3-5--3-5--5-3--3-5--5-3--3-5--3-1--1-1--1-1--1-1--1-1--1|
D|-5--5-3--3-5--5-3--3-5--3-5--5-3--3-5--5-3--3-5--3------1--1------1--1----1|

VERSE

(Rhythm Guitar)
e|---------------------------------------------------------------------------|
B|---------------------------------------------------------------------------|
G|---------------------------------------------------------------------------|
D|-5-------------------------------------------------------------------------|
A|-5-------------------------------------------------------------------------|
D|-5-------------------------------------------------------------------------|

(Bass) X2
e|---------------------------------------------------------------------------|
B|---------------------------------------------------------------------------|
G|---------------------------------------------------------------------------|
D|---------------------------------------------------------------------------|
A|------------------------------1--1-1-1-------------------------------------|
D|-5--5-5-5--5-5--5-5--5-5-5-5-----------3-3--3-3--3-3-3-3-------------------|

e|---------------------------------------------------------------------------|
B|---------------------------------------------------------------------------|
G|---------------------------------------------------------------------------|
D|---------------------------------------------------------------------------|
A|---------------------------------------------------------------------------|
D|-1--1-1-1--1-1--1-1--1-1-1-1--3--3-3-3--3-3--3-3--3-3-3-3------------------|

(Lead Guitar) Comes in on the 2nd half x4
e|---------------------------------------------------------------------------|
B|---------------------------------------------------------------------------|
G|-12--X-X-12--X-12--X-12--12-12-12-12---------------------------------------|
D|---------------------------------------------------------------------------|
A|-10--X-X-10--X-10--X-10--10-10-10-10---------------------------------------|
D|---------------------------------------------------------------------------|

PRE-CHORUS

(Both Guitars)
e|---------------------------------------------------------------------------|
B|---------------------------------------------------------------------------|
G|-------------------------------------------3--3-3---------------3--3-3-----|
D|-3--3-3--5\-----------3--3-3--5\-----------3--3-3--1\-----------3--3-3--1\-|
A|-3--3-3--5\-----------3--3-3--5\-----------1--1-1--1\-----------1--1-1--1\-|
D|-3--3-3--5\-----------3--3-3--5\-------------------1\-------------------1\-|

e|------------------------------------------------------------------------------------|
B|------------------------------------------------------------------------------------|
G|-------------------------------------------------3--3-3------------------3--3-3-----|
D|-3--3-3--5-5--5--5-5-5-5-3--3-3--5-5--5--5-5-5-5-3--3-3--1-1--1--1-1-1-1-3--3-3--1--|
A|-3--3-3--5-5--5--5-5-5-5-3--3-3--5-5--5--5-5-5-5-1--1-1--1-1--1--1-1-1-1-1--1-1--1--|
D|-3--3-3--5-5--5--5-5-5-5-3--3-3--5-5--5--5-5-5-5---------1-1--1--1-1-1-1---------1--|
             *  *  * * * *           *  *  * * * *           *  *  * * * *

CHORUS

(Both Guitars)
e|---------------------------------------------------------------------------|
B|---------------------------------------------------------------------------|
G|---------------------------------------------------3--3------3--3------3---|
D|-5--5-3--3-5--5-3--3-5--3-5--5-3--3-5--5-3--3-5--3-3--3-1--1-3--3-1--1-3--1|
A|-5--5-3--3-5--5-3--3-5--3-5--5-3--3-5--5-3--3-5--3-1--1-1--1-1--1-1--1-1--1|
D|-5--5-3--3-5--5-3--3-5--3-5--5-3--3-5--5-3--3-5--3------1--1------1--1----1|

e|---------------------------------------------------------------------------|
B|---------------------------------------------------------------------------|
G|---------------------------------------------------3--3------3--3------3---|
D|-5--5-3--3-5--5-3--3-5--3-5--5-3--3-5--5-3--3-5--3-3--3-1--1-3--3-1--1-3--1|
A|-5--5-3--3-5--5-3--3-5--3-5--5-3--3-5--5-3--3-5--3-1--1-1--1-1--1-1--1-1--1|
D|-5--5-3--3-5--5-3--3-5--3-5--5-3--3-5--5-3--3-5--3------1--1------1--1----1|

BRIDGE

(Rhythm Guitar) Volume Control Effect!
e|---------------------------------------------------------------------------|
B|---------------------------------------------------------------------------|
G|---------------------------------------------------------------------------|
D|-5-------------------------------------------------------------------------|
A|-5-------------------------------------------------------------------------|
D|-5-------------------------------------------------------------------------|

VERSE

(Bass) X2
e|---------------------------------------------------------------------------|
B|---------------------------------------------------------------------------|
G|---------------------------------------------------------------------------|
D|---------------------------------------------------------------------------|
A|------------------------------1--1-1-1-------------------------------------|
D|-5--5-5-5--5-5--5-5--5-5-5-5-----------3-3--3-3--3-3-3-3-------------------|

e|---------------------------------------------------------------------------|
B|---------------------------------------------------------------------------|
G|---------------------------------------------------------------------------|
D|---------------------------------------------------------------------------|
A|---------------------------------------------------------------------------|
D|-1--1-1-1--1-1--1-1--1-1-1-1--3--3-3-3--3-3--3-3--3-3-3-3------------------|

(Lead Guitar) Comes in on the 2nd half x4
e|---------------------------------------------------------------------------|
B|---------------------------------------------------------------------------|
G|-12--X-X-12--X-12--X-12--12-12-12-12---------------------------------------|
D|---------------------------------------------------------------------------|
A|-10--X-X-10--X-10--X-10--10-10-10-10---------------------------------------|
D|---------------------------------------------------------------------------|

PRE-CHORUS

(Both Guitars)
e|---------------------------------------------------------------------------|
B|---------------------------------------------------------------------------|
G|-------------------------------------------3--3-3---------------3--3-3-----|
D|-3--3-3--5\-----------3--3-3--5\-----------3--3-3--1\-----------3--3-3--1\-|
A|-3--3-3--5\-----------3--3-3--5\-----------1--1-1--1\-----------1--1-1--1\-|
D|-3--3-3--5\-----------3--3-3--5\-------------------1\-------------------1\-|

e|------------------------------------------------------------------------------------|
B|------------------------------------------------------------------------------------|
G|-------------------------------------------------3--3-3------------------3--3-3-----|
D|-3--3-3--5-5--5--5-5-5-5-3--3-3--5-5--5--5-5-5-5-3--3-3--1-1--1--1-1-1-1-3--3-3--1--|
A|-3--3-3--5-5--5--5-5-5-5-3--3-3--5-5--5--5-5-5-5-1--1-1--1-1--1--1-1-1-1-1--1-1--1--|
D|-3--3-3--5-5--5--5-5-5-5-3--3-3--5-5--5--5-5-5-5---------1-1--1--1-1-1-1---------1--|
             *  *  * * * *           *  *  * * * *           *  *  * * * *

CHORUS

(Both Guitars)
e|---------------------------------------------------------------------------|
B|---------------------------------------------------------------------------|
G|---------------------------------------------------3--3------3--3------3---|
D|-5--5-3--3-5--5-3--3-5--3-5--5-3--3-5--5-3--3-5--3-3--3-1--1-3--3-1--1-3--1|
A|-5--5-3--3-5--5-3--3-5--3-5--5-3--3-5--5-3--3-5--3-1--1-1--1-1--1-1--1-1--1|
D|-5--5-3--3-5--5-3--3-5--3-5--5-3--3-5--5-3--3-5--3------1--1------1--1----1|

e|---------------------------------------------------------------------------|
B|---------------------------------------------------------------------------|
G|---------------------------------------------------3--3------3--3------3---|
D|-5--5-3--3-5--5-3--3-5--3-5--5-3--3-5--5-3--3-5--3-3--3-1--1-3--3-1--1-3--1|
A|-5--5-3--3-5--5-3--3-5--3-5--5-3--3-5--5-3--3-5--3-1--1-1--1-1--1-1--1-1--1|
D|-5--5-3--3-5--5-3--3-5--3-5--5-3--3-5--5-3--3-5--3------1--1------1--1----1|

BREAKDOWN

(Rhythm Guitar)
e|---------------------------------------------------------------------------|
B|---------------------------------------------------------------------------|
G|---------------------------------------------------------------------------|
D|-5-5--------------------5-5------------------------------------------------|
A|-5-5--------------------5-5------------------------------------------------|
D|-5-5--------------------5-5------------------------------------------------|

e|---------------------------------------------------------------------------|
B|---------------------------------------------------------------------------|
G|---------------------------------------------------------------------------|
D|-5-5~-------------------5--------------------------------------------------|
A|-5-5~-------------------5--------------------------------------------------|
D|-5-5~-------------------5--------------------------------------------------|

(Lead Guitar)
e|---------------------------------------------------------------------------|
B|---------------------------------------------------------------------------|
G|---------------------------------------------------------------------------|
D|---------------------------------------------------------------------------|
A|----------3h5-1h3p1-----------------3h5-1h3p1------------------------------|
D|-5-5-3h5------------5p3h5--5-5-3h5------------5p3h5------------------------|

e|---------------------------------------------------------------------------|
B|---------------------------------------------------------------------------|
G|---------------------------------------------------------------------------|
D|---------------------------------------------------------------------------|
A|----------3h5-1h3p1--------------------------------------------------------|
D|-5-5-3h5------------5p3h5--5-----------------------------------------------|

(Both Guitars) X4
e|---------------------------------------------------------------------------|
B|---------------------------------------------------------------------------|
G|---------------------------------------------------------------------------|
D|---------------------------------------------------------------------------|
A|----------3h5-1h3p1-----------------3h5-1h3p1------------------------------|
D|-5-5-3h5------------5p3h5--5-5-3h5------------5p3h5------------------------|

CHORUS

(Both Guitars)
e|---------------------------------------------------------------------------|
B|---------------------------------------------------------------------------|
G|---------------------------------------------------3--3------3--3------3---|
D|-5--5-3--3-5--5-3--3-5--3-5--5-3--3-5--5-3--3-5--3-3--3-1--1-3--3-1--1-3--1|
A|-5--5-3--3-5--5-3--3-5--3-5--5-3--3-5--5-3--3-5--3-1--1-1--1-1--1-1--1-1--1|
D|-5--5-3--3-5--5-3--3-5--3-5--5-3--3-5--5-3--3-5--3------1--1------1--1----1|

e|---------------------------------------------------------------------------|
B|---------------------------------------------------------------------------|
G|---------------------------------------------------3--3------3--3------3---|
D|-5--5-3--3-5--5-3--3-5--3-5--5-3--3-5--5-3--3-5--3-3--3-1--1-3--3-1--1-3--1|
A|-5--5-3--3-5--5-3--3-5--3-5--5-3--3-5--5-3--3-5--3-1--1-1--1-1--1-1--1-1--1|
D|-5--5-3--3-5--5-3--3-5--3-5--5-3--3-5--5-3--3-5--3------1--1------1--1----1|

OUTRO

(Both Guitars)
e|---------------------------------------------------------------------------|
B|---------------------------------------------------------------------------|
G|-------------------------------------------3--3-3---------------3--3-3-----|
D|-3--3-3--5\-----------3--3-3--5\-----------3--3-3--1\-----------3--3-3--1\-|
A|-3--3-3--5\-----------3--3-3--5\-----------1--1-1--1\-----------1--1-1--1\-|
D|-3--3-3--5\-----------3--3-3--5\-------------------1\-------------------1\-|

e|------------------------------------------------------------------------------------|
B|------------------------------------------------------------------------------------|
G|-------------------------------------------------3--3-3------------------3--3-3-----|
D|-3--3-3--5-5--5--5-5-5-5-3--3-3--5-5--5--5-5-5-5-3--3-3--1-1--1--1-1-1-1-3--3-3--1--|
A|-3--3-3--5-5--5--5-5-5-5-3--3-3--5-5--5--5-5-5-5-1--1-1--1-1--1--1-1-1-1-1--1-1--1--|
D|-3--3-3--5-5--5--5-5-5-5-3--3-3--5-5--5--5-5-5-5---------1-1--1--1-1-1-1---------1--|
             *  *  * * * *           *  *  * * * *           *  *  * * * *

Comment, Rate, Whatever!

************************************

| /   slide up
| \   slide down
| h   hammer-on
| p   pull-off
| ~   vibrato
| +   harmonic
| x   Mute note
| b   Bend
| pb  Pre-bend
| br  Bend release
| pbr Pre-bend release
| brb Bend release bend

************************************
comments
print report bad tab
1 comment total.
0 reply
hopo182 wrote on April 24 2011, 01:42 pm

awesome tab :)

I want to post or [tab]
guest
You may want to rate the tab now too:
select rating
Please do not post tabs as comments. Select "correction" instead!