Oops, an error
Loading. Please wait.

Im A Riot Youre A Fucking Riot Tab

ver1
ver1

Whole song

Interactive

More versions @911Tabs.com
5,103 views 6 this week
no commentswrite comment
1 2 3 4 5
accurate
x 5
Autoscroll
+/-
esc
set tempo
stop
Difficulty
Tuning
intermediate
D A D G B E
Hey! There's an official Ultimate Guitar app which is ideal
for learning songs when you're away from computer. Get the app
WARNING: You are trying to view
                                    content from Ultimate-Guitar.com
                                    in an unauthorized application,
                                    which is prohibited.

                                    Please use an official Ultimate
                                    Guitar Tabs application for iPhone,
                                    iPad or Android to access legitimate
                                    chords, guitar, bass, and drum tabs
                                    from Ultimate-Guitar.com database.

                                    Type "ultimate guitar tabs" in Apple
                                    App Store's or Android Market's
                                    search to find the application.
      Q    E  E  E  E  E  E     E  E  E  E  Q    Q     
D#||-------------------------|------------------------|
A#||-------------------------|------------------------|
F#||-------------------------|------------------------|
C#||--0----0--------------5--|--6--------0--6----6----|
G#||--0----0--------5--6-----|-----5--6--0--6----6----|
C#||--0----0--5--6-----------|-----------0--6----6----|


  Q    E  E  E  E  E  E     E  E  E  E  Q    Q       Q    E  E  E  E  E  E   
-------------------------|------------------------|-------------------------|
-------------------------|------------------------|-------------------------|
-------------------------|------------------------|-------------------------|
--0----0--------------5--|--6--------0--6----6----|--0----0--------------5--|
--0----0--------5--6-----|-----5--6--0--6----6----|--0----0--------5--6-----|
--0----0--5--6-----------|-----------0--6----6----|--0----0--5--6-----------|


  E  E  E  E  Q    Q       Q    E  E  E  E  E  E     E  E  E  E  Q    Q     
------------------------|-------------------------|------------------------|
------------------------|-------------------------|------------------------|
------------------------|-------------------------|------------------------|
--6--------0--6----6----|--0----0--------------5--|--6--------0--6----6----|
-----5--6--0--6----6----|--0----0--------5--6-----|-----5--6--0--6----6----|
-----------0--6----6----|--0----0--5--6-----------|-----------0--6----6----|


  Q    E  E  E  E  E  E     E  E  E  E  Q    Q       Q    E  E  E  E  E  E   
-------------------------|------------------------|-------------------------|
-------------------------|------------------------|-------------------------|
-------------------------|------------------------|-------------------------|
--0----0--------------5--|--6--------0--6----6----|--3----3--3--3--3--3--3--|
--0----0--------5--6-----|-----5--6--0--6----6----|--3----3--3--3--3--3--3--|
--0----0--5--6-----------|-----------0--6----6----|--3----3--3--3--3--3--3--|


  E  E  E  E  E  E  E  E     Q    E  E  E  E  E  E     E  E  E  E  Q    Q     
--------------------------|-------------------------|------------------------|
--------------------------|-------------------------|------------------------|
--------------------------|-------------------------|------------------------|
--3--3--3--3--3--6--6--6--|--0----0--------------5--|--6--------0--6----6----|
--3--3--3--3--3--6--6--6--|--0----0--------5--6-----|-----5--6--0--6----6----|
--3--3--3--3--3--6--6--6--|--0----0--5--6-----------|-----------0--6----6----|


  Q    E  E  E  E  E  E     E  E  E  E  Q    Q       Q    E  E  E  E  E  E   
-------------------------|------------------------|-------------------------|
-------------------------|------------------------|-------------------------|
-------------------------|------------------------|-------------------------|
--0----0--------------5--|--6--------0--6----6----|--0----0--------------5--|
--0----0--------5--6-----|-----5--6--0--6----6----|--0----0--------5--6-----|
--0----0--5--6-----------|-----------0--6----6----|--0----0--5--6-----------|


  E  E  E  E  Q    Q       Q    E  E  E  E  E  E     E  E  E  E  E  E  E  E   
------------------------|-------------------------|--------------------------|
------------------------|-------------------------|--------------------------|
------------------------|-------------------------|--------------------------|
--6--------0--6----6----|--3----3--3--3--3--3--3--|--3--3--3--3--3--6--6--6--|
-----5--6--0--6----6----|--3----3--3--3--3--3--3--|--3--3--3--3--3--6--6--6--|
-----------0--6----6----|--3----3--3--3--3--3--3--|--3--3--3--3--3--6--6--6--|


  Q    E  E  E  E  E  E     E  E  E  E  Q    Q       Q    E  E  E  E  E  E   
-------------------------|------------------------|-------------------------|
-------------------------|------------------------|-------------------------|
-------------------------|------------------------|-------------------------|
--0----0--------------5--|--6--------0--6----6----|--0----0--------------5--|
--0----0--------5--6-----|-----5--6--0--6----6----|--0----0--------5--6-----|
--0----0--5--6-----------|-----------0--6----6----|--0----0--5--6-----------|


  E  E  E  E  Q    Q       Q    E  E  E  E  E  E     E  E  E  E  Q    Q     
------------------------|-------------------------|------------------------|
------------------------|-------------------------|------------------------|
------------------------|-------------------------|------------------------|
--6--------0--6----6----|--0----0--------------5--|--6--------0--6----6----|
-----5--6--0--6----6----|--0----0--------5--6-----|-----5--6--0--6----6----|
-----------0--6----6----|--0----0--5--6-----------|-----------0--6----6----|


  Q    E  E  E  E  E  E     E  E  E  E  E  E  E  E     E  E  E  E  E  E  E  E   
-------------------------|--------------------------|--------------------------|
-------------------------|--------------------------|--------------------------|
-------------------------|--------------------------|--7--7--7--7--7--7--7--7--|
--3----3--3--3--3--3--3--|--3--3--3--3--3--6--6--6--|--------------------------|
--3----3--3--3--3--3--3--|--3--3--3--3--3--6--6--6--|--5--5--5--5--5--5--5--5--|
--3----3--3--3--3--3--3--|--3--3--3--3--3--6--6--6--|--------------------------|


  E  E  E  E  E  E  E  E     E  E  E  E  E  E  E  E   
--------------------------|--------------------------|
--------------------------|--------------------------|
--7--7--7--7--7--7--7--7--|--8--8--8--8--8--8--8--8--|
--------------------------|--------------------------|
--5--5--5--5--5--5--5--5--|--6--6--6--6--6--6--6--6--|
--------------------------|--------------------------|


   E   E   E   E   E   E   E   E     E  E  E  E  E  E  E  E   
----------------------------------|--------------------------|
----------------------------------|--------------------------|
--10--10--10--10--10--10--10--10--|--7--7--7--7--7--7--7--7--|
----------------------------------|--------------------------|
---8---8---8---8---8---8---8---8--|--5--5--5--5--5--5--5--5--|
----------------------------------|--------------------------|


  E  E  E  E  E  E  E  E     E  E  E  E  E  E  E  E   
--------------------------|--------------------------|
--------------------------|--------------------------|
--7--7--7--7--7--7--7--7--|--8--8--8--8--8--8--8--8--|
--------------------------|--------------------------|
--5--5--5--5--5--5--5--5--|--6--6--6--6--6--6--6--6--|
--------------------------|--------------------------|


   E   E   E   E   E   E   E   E     E  E  E  E  E  E  E  E   
----------------------------------|--------------------------|
----------------------------------|--------------------------|
--10--10--10--10--10--10--10--10--|--7--7--7--7--7--7--7--7--|
----------------------------------|--------------------------|
---8---8---8---8---8---8---8---8--|--5--5--5--5--5--5--5--5--|
----------------------------------|--------------------------|


  E  E  E  E  E  E  E  E     E  E  E  E  E  E  E  E   
--------------------------|--------------------------|
--------------------------|--------------------------|
--7--7--7--7--7--7--7--7--|--8--8--8--8--8--8--8--8--|
--------------------------|--------------------------|
--5--5--5--5--5--5--5--5--|--6--6--6--6--6--6--6--6--|
--------------------------|--------------------------|


   E   E   E   E   E   E   E   E     E  E  E  E  E  E  E  E   
----------------------------------|--------------------------|
----------------------------------|--------------------------|
--10--10--10--10--10--10--10--10--|--7--7--7--7--7--7--7--7--|
----------------------------------|--------------------------|
---8---8---8---8---8---8---8---8--|--5--5--5--5--5--5--5--5--|
----------------------------------|--------------------------|


  E  E  E  E  E  E  E  E     E  E  E  E  E  E  E  E   
--------------------------|--------------------------|
--------------------------|--------------------------|
--7--7--7--7--7--7--7--7--|--8--8--8--8--8--8--8--8--|
--------------------------|--------------------------|
--5--5--5--5--5--5--5--5--|--6--6--6--6--6--6--6--6--|
--------------------------|--------------------------|


   E   E   E   E   E   E   E   E     E  E  Q    H         
----------------------------------|----------------------|
----------------------------------|-------------5--------|
--10--10--10--10--10--10--10--10--|-------------8--------|
----------------------------------|--0--0--0-------------|
---8---8---8---8---8---8---8---8--|--0--0--0-------------|
----------------------------------|--0--0--0-------------|


  E  E  Q    H           E  E  Q    H           E  E  Q    H         
----------------------|----------------------|----------------------|
-------------5--------|-------------5--------|-------------5--------|
-------------8--------|-------------8--------|-------------8--------|
--0--0--0-------------|--0--0--0-------------|--0--0--0-------------|
--0--0--0-------------|--0--0--0-------------|--0--0--0-------------|
--0--0--0-------------|--0--0--0-------------|--0--0--0-------------|


  E  E  E  E  E  E  E  E     E  E  E  E   E   E   E   E   
--------------------------|------------------------------|
--------------------------|------------------------------|
--8--8--8--8--8--8--8--8--|--8--8--8--8--10--10--10--10--|
--------------------------|------------------------------|
--6--6--6--6--6--6--6--6--|--6--6--6--6---8---8---8---8--|
--------------------------|------------------------------|


  E  E  E  E  E  E  E  E     E  E  E  E  E  E  E  E     E  E  Q    H         
--------------------------|--------------------------|----------------------|
--------------------------|--------------------------|-------------5--------|
--5--5--5--5--5--5--5--5--|--7--7--7--7--7--7--7--7--|-------------8--------|
--------------------------|--------------------------|--0--0--0-------------|
--3--3--3--3--3--3--3--3--|--5--5--5--5--5--5--5--5--|--0--0--0-------------|
--------------------------|--------------------------|--0--0--0-------------|


  E  E  Q    H           E  E  Q    H           E  E  Q    H         
----------------------|----------------------|----------------------|
-------------5--------|-------------5--------|-------------5--------|
-------------8--------|-------------8--------|-------------8--------|
--0--0--0-------------|--0--0--0-------------|--0--0--0-------------|
--0--0--0-------------|--0--0--0-------------|--0--0--0-------------|
--0--0--0-------------|--0--0--0-------------|--0--0--0-------------|


  E  E  E  E  E  E  E  E     E  E  E  E   E   E   E   E   
--------------------------|------------------------------|
--------------------------|------------------------------|
--8--8--8--8--8--8--8--8--|--8--8--8--8--10--10--10--10--|
--------------------------|------------------------------|
--6--6--6--6--6--6--6--6--|--6--6--6--6---8---8---8---8--|
--------------------------|------------------------------|


  E  E  E  E  E  E  E  E     E  E  E  E  E  E  E  E     Q    E  E  E  E  E  E   
--------------------------|--------------------------|-------------------------|
--------------------------|--------------------------|-------------------------|
--5--5--5--5--5--5--5--5--|--7--7--7--7--7--7--7--7--|-------------------------|
--------------------------|--------------------------|--0----0--------------5--|
--3--3--3--3--3--3--3--3--|--5--5--5--5--5--5--5--5--|--0----0--------5--6-----|
--------------------------|--------------------------|--0----0--5--6-----------|


  E  E  E  E  Q    Q       Q    E  E  E  E  E  E     E  E  E  E  Q    Q     
------------------------|-------------------------|------------------------|
------------------------|-------------------------|------------------------|
------------------------|-------------------------|------------------------|
--6--------0--6----6----|--0----0--------------5--|--6--------0--6----6----|
-----5--6--0--6----6----|--0----0--------5--6-----|-----5--6--0--6----6----|
-----------0--6----6----|--0----0--5--6-----------|-----------0--6----6----|


  Q    E  E  E  E  E  E     E  E  E  E  Q    Q       Q    E  E  E  E  E  E   
-------------------------|------------------------|-------------------------|
-------------------------|------------------------|-------------------------|
-------------------------|------------------------|-------------------------|
--0----0--------------5--|--6--------0--6----6----|--3----3--3--3--3--3--3--|
--0----0--------5--6-----|-----5--6--0--6----6----|--3----3--3--3--3--3--3--|
--0----0--5--6-----------|-----------0--6----6----|--3----3--3--3--3--3--3--|


  E  E  E  E  E  E  E  E     Q    E  E  E  E  E  E     E  E  E  E  Q    Q     
--------------------------|-------------------------|------------------------|
--------------------------|-------------------------|------------------------|
--------------------------|-------------------------|------------------------|
--3--3--3--3--3--6--6--6--|--0----0--------------5--|--6--------0--6----6----|
--3--3--3--3--3--6--6--6--|--0----0--------5--6-----|-----5--6--0--6----6----|
--3--3--3--3--3--6--6--6--|--0----0--5--6-----------|-----------0--6----6----|


  Q    E  E  E  E  E  E     E  E  E  E  Q    Q       Q    E  E  E  E  E  E   
-------------------------|------------------------|-------------------------|
-------------------------|------------------------|-------------------------|
-------------------------|------------------------|-------------------------|
--0----0--------------5--|--6--------0--6----6----|--0----0--------------5--|
--0----0--------5--6-----|-----5--6--0--6----6----|--0----0--------5--6-----|
--0----0--5--6-----------|-----------0--6----6----|--0----0--5--6-----------|


  E  E  E  E  Q    Q       Q    E  E  E  E  E  E     E  E  E  E  E  E  E  E   
------------------------|-------------------------|--------------------------|
------------------------|-------------------------|--------------------------|
------------------------|-------------------------|--------------------------|
--6--------0--6----6----|--3----3--3--3--3--3--3--|--3--3--3--3--3--6--6--6--|
-----5--6--0--6----6----|--3----3--3--3--3--3--3--|--3--3--3--3--3--6--6--6--|
-----------0--6----6----|--3----3--3--3--3--3--3--|--3--3--3--3--3--6--6--6--|


  Q    E  E  E  E  E  E     E  E  E  E  Q    Q       Q    E  E  E  E  E  E   
-------------------------|------------------------|-------------------------|
-------------------------|------------------------|-------------------------|
-------------------------|------------------------|-------------------------|
--0----0--------------5--|--6--------0--6----6----|--0----0--------------5--|
--0----0--------5--6-----|-----5--6--0--6----6----|--0----0--------5--6-----|
--0----0--5--6-----------|-----------0--6----6----|--0----0--5--6-----------|


  E  E  E  E  Q    Q       Q    E  E  E  E  E  E     E  E  E  E  Q    Q     
------------------------|-------------------------|------------------------|
------------------------|-------------------------|------------------------|
------------------------|-------------------------|------------------------|
--6--------0--6----6----|--0----0--------------5--|--6--------0--6----6----|
-----5--6--0--6----6----|--0----0--------5--6-----|-----5--6--0--6----6----|
-----------0--6----6----|--0----0--5--6-----------|-----------0--6----6----|


  Q    E  E  E  E  E  E     E  E  E  E  E  E  E  E     E  E  E  E  E  E  E  E   
-------------------------|--------------------------|--------------------------|
-------------------------|--------------------------|--------------------------|
-------------------------|--------------------------|--7--7--7--7--7--7--7--7--|
--3----3--3--3--3--3--3--|--3--3--3--3--3--6--6--6--|--------------------------|
--3----3--3--3--3--3--3--|--3--3--3--3--3--6--6--6--|--5--5--5--5--5--5--5--5--|
--3----3--3--3--3--3--3--|--3--3--3--3--3--6--6--6--|--------------------------|


  E  E  E  E  E  E  E  E     E  E  E  E  E  E  E  E   
--------------------------|--------------------------|
--------------------------|--------------------------|
--7--7--7--7--7--7--7--7--|--8--8--8--8--8--8--8--8--|
--------------------------|--------------------------|
--5--5--5--5--5--5--5--5--|--6--6--6--6--6--6--6--6--|
--------------------------|--------------------------|


   E   E   E   E   E   E   E   E     E  E  E  E  E  E  E  E   
----------------------------------|--------------------------|
----------------------------------|--------------------------|
--10--10--10--10--10--10--10--10--|--7--7--7--7--7--7--7--7--|
----------------------------------|--------------------------|
---8---8---8---8---8---8---8---8--|--5--5--5--5--5--5--5--5--|
----------------------------------|--------------------------|


  E  E  E  E  E  E  E  E     E  E  E  E  E  E  E  E   
--------------------------|--------------------------|
--------------------------|--------------------------|
--7--7--7--7--7--7--7--7--|--8--8--8--8--8--8--8--8--|
--------------------------|--------------------------|
--5--5--5--5--5--5--5--5--|--6--6--6--6--6--6--6--6--|
--------------------------|--------------------------|


   E   E   E   E   E   E   E   E     E  E  E  E  E  E  E  E   
----------------------------------|--------------------------|
----------------------------------|--------------------------|
--10--10--10--10--10--10--10--10--|--7--7--7--7--7--7--7--7--|
----------------------------------|--------------------------|
---8---8---8---8---8---8---8---8--|--5--5--5--5--5--5--5--5--|
----------------------------------|--------------------------|


  E  E  E  E  E  E  E  E     E  E  E  E  E  E  E  E   
--------------------------|--------------------------|
--------------------------|--------------------------|
--7--7--7--7--7--7--7--7--|--8--8--8--8--8--8--8--8--|
--------------------------|--------------------------|
--5--5--5--5--5--5--5--5--|--6--6--6--6--6--6--6--6--|
--------------------------|--------------------------|


   E   E   E   E   E   E   E   E     E  E  E  E  E  E  E  E   
----------------------------------|--------------------------|
----------------------------------|--------------------------|
--10--10--10--10--10--10--10--10--|--7--7--7--7--7--7--7--7--|
----------------------------------|--------------------------|
---8---8---8---8---8---8---8---8--|--5--5--5--5--5--5--5--5--|
----------------------------------|--------------------------|


  E  E  E  E  E  E  E  E     E  E  E  E  E  E  E  E   
--------------------------|--------------------------|
--------------------------|--------------------------|
--7--7--7--7--7--7--7--7--|--8--8--8--8--8--8--8--8--|
--------------------------|--------------------------|
--5--5--5--5--5--5--5--5--|--6--6--6--6--6--6--6--6--|
--------------------------|--------------------------|


   E   E   E   E   E   E   E   E     E  E  Q    H         
----------------------------------|----------------------|
----------------------------------|-------------5--------|
--10--10--10--10--10--10--10--10--|-------------8--------|
----------------------------------|--0--0--0-------------|
---8---8---8---8---8---8---8---8--|--0--0--0-------------|
----------------------------------|--0--0--0-------------|


  E  E  Q    H           E  E  Q    H           E  E  Q    H         
----------------------|----------------------|----------------------|
-------------5--------|-------------5--------|-------------5--------|
-------------8--------|-------------8--------|-------------8--------|
--0--0--0-------------|--0--0--0-------------|--0--0--0-------------|
--0--0--0-------------|--0--0--0-------------|--0--0--0-------------|
--0--0--0-------------|--0--0--0-------------|--0--0--0-------------|


  E  E  E  E  E  E  E  E     E  E  E  E   E   E   E   E   
--------------------------|------------------------------|
--------------------------|------------------------------|
--8--8--8--8--8--8--8--8--|--8--8--8--8--10--10--10--10--|
--------------------------|------------------------------|
--6--6--6--6--6--6--6--6--|--6--6--6--6---8---8---8---8--|
--------------------------|------------------------------|


  E  E  E  E  E  E  E  E     E  E  E  E  E  E  E  E     E  E  Q    H         
--------------------------|--------------------------|----------------------|
--------------------------|--------------------------|-------------5--------|
--5--5--5--5--5--5--5--5--|--7--7--7--7--7--7--7--7--|-------------8--------|
--------------------------|--------------------------|--0--0--0-------------|
--3--3--3--3--3--3--3--3--|--5--5--5--5--5--5--5--5--|--0--0--0-------------|
--------------------------|--------------------------|--0--0--0-------------|


  E  E  Q    H           E  E  Q    H           E  E  Q    H         
----------------------|----------------------|----------------------|
-------------5--------|-------------5--------|-------------5--------|
-------------8--------|-------------8--------|-------------8--------|
--0--0--0-------------|--0--0--0-------------|--0--0--0-------------|
--0--0--0-------------|--0--0--0-------------|--0--0--0-------------|
--0--0--0-------------|--0--0--0-------------|--0--0--0-------------|


  E  E  E  E  E  E  E  E     E  E  E  E   E   E   E   E   
--------------------------|------------------------------|
--------------------------|------------------------------|
--8--8--8--8--8--8--8--8--|--8--8--8--8--10--10--10--10--|
--------------------------|------------------------------|
--6--6--6--6--6--6--6--6--|--6--6--6--6---8---8---8---8--|
--------------------------|------------------------------|


  E  E  E  E  E  E  E  E     E  E  E  E  E  E  E  E     Q    E  E  Q    Q     
--------------------------|--------------------------|-----------------------|
--------------------------|--------------------------|-----------------------|
--5--5--5--5--5--5--5--5--|--7--7--7--7--7--7--7--7--|-----------------------|
--------------------------|--------------------------|--0--------------------|
--3--3--3--3--3--3--3--3--|--5--5--5--5--5--5--5--5--|--0----------3----L----|
--------------------------|--------------------------|--0----5--7------------|


  Q    E  E  Q    Q       Q    E  E  Q    Q       Q    E  E  Q    Q     
-----------------------|-----------------------|-----------------------|
-----------------------|-----------------------|-----------------------|
-----------------------|-----------------------|-----------------------|
--0--------------------|--0--------------------|--0--------------------|
--0----------5----L----|--0----------3----L----|--0----------5----L----|
--0----5--7------------|--0----5--7------------|--0----5--7------------|


  Q    E  E  Q    Q       Q    E  E  Q    Q       Q    E  E  Q    Q     
-----------------------|-----------------------|-----------------------|
-----------------------|-----------------------|-----------------------|
-----------------------|-----------------------|-----------------------|
--0--------------------|--0--------------------|--0--------------------|
--0----------3----L----|--0----------5----L----|--0----------3----L----|
--0----5--7------------|--0----5--7------------|--0----5--7------------|


  Q    E  E  Q    Q       Q    E  E  Q    Q       Q    E  E  Q    Q     
-----------------------|-----------------------|-----------------------|
-----------------------|-----------------------|-----------------------|
-----------------------|-----------------------|-----------------------|
--0--------------------|--0--------------------|--0--------------------|
--0----------5----L----|--0----------3----L----|--0----------5----L----|
--0----5--7------------|--0----5--7------------|--0----5--7------------|


  Q    E  E  Q    Q       Q    E  E  Q    Q       Q    E  E  Q    Q     
-----------------------|-----------------------|-----------------------|
-----------------------|-----------------------|-----------------------|
-----------------------|-----------------------|-----------------------|
--0--------------------|--0--------------------|--0--------------------|
--0----------3----L----|--0----------5----L----|--0----------3----L----|
--0----5--7------------|--0----5--7------------|--0----5--7------------|


  Q    E  E  Q    Q       Q    E  E  Q    Q       Q    E  E  Q    Q     
-----------------------|-----------------------|-----------------------|
-----------------------|-----------------------|-----------------------|
-----------------------|-----------------------|-----------------------|
--0--------------------|--0--------------------|--0--------------------|
--0----------5----L----|--0----------3----L----|--0----------5----L----|
--0----5--7------------|--0----5--7------------|--0----5--7------------|


  Q    E  E  Q    Q       Q    E  E  Q    Q       Q    E  E  Q    Q     
-----------------------|-----------------------|-----------------------|
-----------------------|-----------------------|-----------------------|
-----------------------|-----------------------|-----------------------|
--0--------------------|--0--------------------|--0--------------------|
--0----------3----L----|--0----------5----L----|--0----------3----L----|
--0----5--7------------|--0----5--7------------|--0----5--7------------|


  Q    E  E  Q    Q       Q    E  E  Q    Q       Q    E  E  Q    Q     
-----------------------|-----------------------|-----------------------|
-----------------------|-----------------------|-----------------------|
-----------------------|-----------------------|-----------------------|
--0--------------------|--0--------------------|--0--------------------|
--0----------5----L----|--0----------3----L----|--0----------5----L----|
--0----5--7------------|--0----5--7------------|--0----5--7------------|


  Q    E  E  Q    Q       Q    E  E  Q    Q       H        H         
-----------------------|-----------------------|--------------------|
-----------------------|-----------------------|--------------------|
-----------------------|-----------------------|--------------------|
--0--------------------|--0--------------------|--0--------0--------|
--0----------3----L----|--0----------5----L----|--0--------0--------|
--0----5--7------------|--0----5--7------------|--0--------0--------|


  Q.     Q.     Q       Q    Q    Q    Q       Q.     Q.     Q     
---------------------|----------------------|---------------------|
---------------------|----------------------|---------------------|
---------------------|----------------------|---------------------|
--0------0------3----|--L----0----0----0----|--6------5------3----|
--0------0------3----|--L----0----0----0----|--6------5------3----|
--0------0------3----|--L----0----0----0----|--6------5------3----|


  H        H           Q.     Q.     Q       Q    Q    Q    Q     
--------------------|---------------------|----------------------|
--------------------|---------------------|----------------------|
--------------------|---------------------|----------------------|
--0--------0--------|--0------0------3----|--L----0----0----0----|
--0--------0--------|--0------0------3----|--L----0----0----0----|
--0--------0--------|--0------0------3----|--L----0----0----0----|


  Q.     Q.     Q       H        H           Q.     Q.     Q     
---------------------|--------------------|---------------------|
---------------------|--------------------|---------------------|
---------------------|--------------------|---------------------|
--6------5------3----|--0--------0--------|--0------0------3----|
--6------5------3----|--0--------0--------|--0------0------3----|
--6------5------3----|--0--------0--------|--0------0------3----|


  Q    Q    Q    Q       Q.     Q.     Q       H        H         
----------------------|---------------------|--------------------|
----------------------|---------------------|--------------------|
----------------------|---------------------|--------------------|
--L----0----0----0----|--6------5------3----|--0--------0--------|
--L----0----0----0----|--6------5------3----|--0--------0--------|
--L----0----0----0----|--6------5------3----|--0--------0--------|


  Q.     Q.     Q       Q    Q    Q    Q       Q.     Q.     Q     
---------------------|----------------------|---------------------|
---------------------|----------------------|---------------------|
---------------------|----------------------|---------------------|
--0------0------3----|--L----0----0----0----|--6------5------3----|
--0------0------3----|--L----0----0----0----|--6------5------3----|
--0------0------3----|--L----0----0----0----|--6------5------3----|


  Q    Q    Q    Q              
----------------------|-------||
----------------------|-------||
----------------------|-------||
--0-------------------|-------||
--0-------------------|-------||
--0-------------------|-------||
comments
print report bad tab
I want to post or [tab]
guest
You may want to rate the tab now too:
select rating
Please do not post tabs as comments. Select "correction" instead!