Oops, an error
Loading. Please wait.

The Fire Tab

ver1
ver1

Whole song

Interactive

More versions @911Tabs.com
3,761 views 3 this week
no commentswrite comment
1 2 3 4 5
excellent!
x 3
Autoscroll
+/-
esc
set tempo
stop
Contributor
WARNING: You are trying to view
                                    content from Ultimate-Guitar.com
                                    in an unauthorized application,
                                    which is prohibited.

                                    Please use an official Ultimate
                                    Guitar Tabs application for iPhone,
                                    iPad or Android to access legitimate
                                    chords, guitar, bass, and drum tabs
                                    from Ultimate-Guitar.com database.

                                    Type "ultimate guitar tabs" in Apple
                                    App Store's or Android Market's
                                    search to find the application.
D#||-------|----------5-5-----9-9-----5-5---|-----------5-5-----7-7-5-5-4-4-5-|
A#||-------|--5--7-7-7-----7-7-----7-7-----7-|--5--7-7-7-----7-7--------------|
F#||-------|---------------------------------|--------------------------------|
C#||-------|---------------------------------|--------------------------------|
G#||-------|---------------------------------|--------------------------------|
C#||-------|---------------------------------|--------------------------------|

-----------5-5-----9-9-----5-5---|-----------5-5-----7-7-5-5-4-4-5-|
--5--7-7-7-----7-7-----7-7-----7-|--5--7-7-7-----7-7---------------|
---------------------------------|---------------------------------|
---------------------------------|---------------------------------|
---------------------------------|---------------------------------|
---------------------------------|---------------------------------|

-----------5-5-----9-9-----5-5---|-----------5-5-----7-7-5-5-4-4-5-|
--5--7-7-7-----7-7-----7-7-----7-|--5--7-7-7-----7-7---------------|
---------------------------------|---------------------------------|
---------------------------------|---------------------------------|
---------------------------------|---------------------------------|
---------------------------------|---------------------------------|

-----------5-5-----9-9-----5-5---|-----------5-5-----7-7-5-5-4-4-5-|----|-----|
--5--7-7-7-----7-7-----7-7-----7-|--5--7-7-7-----7-7---------------|----|-----|
--------------------------------|----------------------------------|----|-----|
---------------------------------|---------------------------------|----|-----|
---------------------------------|---------------------------------|----|-----|
---------------------------------|---------------------------------|----|-----|

----|----|-----------------------------------|
----|----|-----------------------------------|
----|----|-----------------------------------|
----|----|--4--------4--4---------------4--4-|
----|----|--4--------4--4--4h-7-4h-7----4--4-|
----|----|--4--4--4--4--4------------4--4--4-|

--------------------------------------|----------------------------------|
--------------------------------------|----------------------------------|
-----------------------------------2--|----------------------------------|
--L-4--------------------2h-4p-2---2--|--4--------4--4--------------4--4-|
--L-4-4h-7-4h-7-4-0-0h-4---------2-0--|--4--4--4--4--4--4h-7-4h-7---4--4-|
--L-4-----------4-0-------------------|--4--4--4--4--4------------4-4--4-|

--------------------------------------|-----------------------------------|
--------------------------------------|-----------------------------------|
--------------------------------------|-----------------------------------|
--L-4--------------------2h-4p-2------|--4--------4--4---------------4--4-|
--L-4-4h-7-4h-7-4-0-0h-4---------2----|--4--------4--4--4h-7-4h-7----4--4-|
--L-4-----------4-0-------------------|--4--4--4--4--4------------4--4--4-|

--------------------------------------|---------------------------|
--------------------------------------|---------------------------|
-----------------------------------2--|---------------------------|
--L-4--------------------2h-4p-2---2--|--2--2--2--2--2--2--2--2-0-|
--L-4-4h-7-4h-7-4-0-0h-4---------2-0--|--2--2--2--2--2--2--2--2-0-|
--L-4-----------4-0-------------------|--2--2--2--2--2--2--2--2-0-|

---------------------------|-----------5-5-----9-9-----5-5---|
---------------------------|--5--7-7-7-----7-7-----7-7-----7-|
---------------------------|---------------------------------|
--L--0--0--0--2------------|---------------------------------|
--L--0--0--0--2------2-2-2-|---------------------------------|
--L--0--0--0--2------2-2-2-|---------------------------------|

-----------5-5-----7-7-5-5-4-4-5-|-----------5-5-----9-9-----5-5---|
--5--7-7-7-----7-7---------------|--5--7-7-7-----7-7-----7-7-----7-|
---------------------------------|---------------------------------|
---------------------------------|---------------------------------|
---------------------------------|---------------------------------|
---------------------------------|---------------------------------|

-----------5-5-----7-7-5-5-4-4-5-|-----------5-5-----9-9-----5-5---|
--5--7-7-7-----7-7---------------|--5--7-7-7-----7-7-----7-7-----7-|
---------------------------------|---------------------------------|
---------------------------------|---------------------------------|
---------------------------------|---------------------------------|
---------------------------------|---------------------------------|

-----------5-5-----7-7-5-5-4-4-5-|-----------5-5-----9-9-----5-5---|
--5--7-7-7-----7-7---------------|--5--7-7-7-----7-7-----7-7-----7-|
---------------------------------|---------------------------------|
---------------------------------|---------------------------------|
---------------------------------|---------------------------------|
---------------------------------|---------------------------------|

--7-7-7-7-7-7-7-7-7-7-7-7-7-7-7-7-|--9-9-9-9-9-9-9-9-9-9-9-9-9\----|----|----|
----------------------------------|--------------------------------|----|----|
----------------------------------|--------------------------------|----|----|
----------------------------------|--------------------------------|----|----|
----------------------------------|--------------------------------|----|----|
---------------------------------|---------------------------------|-----|---|

-----------------------------------|--------------------------------------|
-----------------------------------|--------------------------------------|
-----------------------------------|-----------------------------------2--|
--4--------4--4---------------4--4-|--L-4--------------------2h-4p-2---2--|
--4--------4--4--4h-7-4h-7----4--4-|--L-4-4h-7-4h-7-4-0-0h-4---------2-0--|
--4--4--4--4--4------------4--4--4-|--L-4-----------4-0-------------------|

----------------------------------|--------------------------------------|
----------------------------------|--------------------------------------|
----------------------------------|--------------------------------------|
--4--------4--4--------------4--4-|--L-4--------------------2h-4p-2------|
--4--4--4--4--4--4h-7-4h-7---4--4-|--L-4-4h-7-4h-7-4-0-0h-4---------2----|
--4--4--4--4--4------------4-4--4-|--L-4-----------4-0-------------------|

-----------------------------------|--------------------------------------|
-----------------------------------|--------------------------------------|
-----------------------------------|-----------------------------------2--|
--4--------4--4---------------4--4-|--L-4--------------------2h-4p-2---2--|
--4--------4--4--4h-7-4h-7----4--4-|--L-4-4h-7-4h-7-4-0-0h-4---------2-0--|
--4--4--4--4--4------------4--4--4-|--L-4-----------4-0-------------------|

---------------------------|---------------------------|
---------------------------|---------------------------|
---------------------------|---------------------------|
--2--2--2--2--2--2--2--2-0-|--L--0--0--0--2------------|
--2--2--2--2--2--2--2--2-0-|--L--0--0--0--2------2-2-2-|
--2--2--2--2--2--2--2--2-0-|--L--0--0--0--2------2-2-2-|

-----------5-5-----9-9-----5-5---|-----------5-5-----7-7-5-5-4-4-5-|
--5--7-7-7-----7-7-----7-7-----7-|--5--7-7-7-----7-7---------------|
---------------------------------|---------------------------------|
---------------------------------|---------------------------------|
---------------------------------|---------------------------------|
---------------------------------|---------------------------------|

-----------5-5-----9-9-----5-5---|-----------5-5-----7-7-5-5-4-4-5-|
--5--7-7-7-----7-7-----7-7-----7-|--5--7-7-7-----7-7---------------|
---------------------------------|---------------------------------|
---------------------------------|---------------------------------|
---------------------------------|---------------------------------|
---------------------------------|---------------------------------|

-----------5-5-----9-9-----5-5---|-----------5-5-----7-7-5-5-4-4-5-|
--5--7-7-7-----7-7-----7-7-----7-|--5--7-7-7-----7-7---------------|
---------------------------------|---------------------------------|
---------------------------------|---------------------------------|
---------------------------------|---------------------------------|
---------------------------------|---------------------------------|

-----------5-5-----9-9-----5-5---|--7-7-7-7-7-7-7-7-7-7-7-7-7-7-7-7-|
--5--7-7-7-----7-7-----7-7-----7-|----------------------------------|
---------------------------------|----------------------------------|
---------------------------------|----------------------------------|
---------------------------------|----------------------------------|
---------------------------------|----------------------------------|

--9-9-9-9-9-9-9-9-9-9-9-9-9\----|-------------------|-------------------|
--------------------------------|-------------------|-------------------|
--------------------------------|-------------------|-------------------|
--------------------------------|--4----------------|--L----------------|
--------------------------------|--4----------------|--L----------------|
--------------------------------|--4----------------|--L----------------|

----------------------|-------|------------------------|
----------------------|-------|------------------------|
----------------------|-------|--------------2---------|
--4\------------------|-------|--------------2---------|
--4\------------------|-------|--4---0---2---0---4--0--|
--4\------------------|-------|--4---0---2-------4--0--|

------------------------|------------------------|------------------------|
------------------------|------------------------|------------------------|
--------------2---------|--------------2---------|--------------2---------|
--------------2---------|--------------2---------|--------------2---------|
--4---0---2---0---4-----|--4---0---2---0---4--0--|--4---0---2---0---4-----|
--4---0---2-------4-----|--4---0---2-------4--0--|--4---0---2-------4-----|

------------------------|------------------------|------------------------|
------------------------|------------------------|------------------------|
--------------2---------|--------------2---------|--------------2---------|
--------------2---------|--------------2---------|--------------2---------|
--4---0---2---0---4--0--|--4---0---2---0---4-----|--4---0---2---0---4--0--|
--4---0---2-------4--0--|--4---0---2-------4-----|--4---0---2-------4--0--|

------------------------|-----|-----|-----|-----|
------------------------|-----|-----|-----|-----|
--------------2---------|-----|-----|-----|-----|
--------------2---------|-----|-----|-----|-----|
--4---0---2---0---4-----|-----|-----|-----|-----|
--4---0---2-------4-----|-----|-----|-----|-----|

----------------------------------------|
--12br--12br--12br--12-12br-------------|
-----------------------------9--11----L-|
----------------------------------------|
----------------------------------------|
----------------------------------------|

----------------------------------------|
---------------------------------12--10-|
--11-9--11-11-9-9-11-11-9-9-11-9--------|
----------------------------------------|
----------------------------------------|
----------------------------------------|

----------------------------------------|
--12br--12br--12br--12-12br-------------|
-----------------------------9--11----L-|
----------------------------------------|
----------------------------------------|
----------------------------------------|

------------------------------------------12-12-12-12-14-14-14-14-14-14-14-14-|
12-12-12-12-12-12-14-14-14-14-15-15-15-15-------------------------------------|
------------------------------------------------------------------------------|
------------------------------------------------------------------------------|
------------------------------------------------------------------------------|
------------------------------------------------------------------------------|

--19br--19br--19br--19-19br--------------|
-----------------------------17--19----L-|
-----------------------------------------|
-----------------------------------------|
-----------------------------------------|
-----------------------------------------|

----------17h-19p-17----17h-19p-17----17h-19p-17----17h-19p-17----|
--17--19-------------19------------19------------19------------19-|
------------------------------------------------------------------|
------------------------------------------------------------------|
------------------------------------------------------------------|
------------------------------------------------------------------|

----------------------------------------|
--19--17--19-19--15--17-17--14-15-14-12-|
----------------------------------------|
----------------------------------------|
----------------------------------------|
----------------------------------------|

-----------------------------------------------------|
-------------14h-15-17p-14-15p-14--------------------|
--13h-14h-16----------------------14p-13p-11-<>13----|
-----------------------------------------------------|
-----------------------------------------------------|
-----------------------------------------------------|

-----------5-5-----9-9-----5-5---|-----------5-5-----7-7-5-5-4-4-5-|
--5--7-7-7-----7-7-----7-7-----7-|--5--7-7-7-----7-7---------------|
---------------------------------|---------------------------------|
---------------------------------|---------------------------------|
---------------------------------|---------------------------------|
---------------------------------|---------------------------------|

-----------5-5-----9-9-----5-5---|-----------5-5-----7-7-5-5-4-4-5-|
--5--7-7-7-----7-7-----7-7-----7-|--5--7-7-7-----7-7---------------|
---------------------------------|---------------------------------|
---------------------------------|---------------------------------|
---------------------------------|---------------------------------|
---------------------------------|---------------------------------|

-----------5-5-----9-9-----5-5---|-----------5-5-----7-7-5-5-4-4-5-|
--5--7-7-7-----7-7-----7-7-----7-|--5--7-7-7-----7-7---------------|
---------------------------------|---------------------------------|
---------------------------------|---------------------------------|
---------------------------------|---------------------------------|
---------------------------------|---------------------------------|

-----------5-5-----9-9-----5-5---|--7-7-7-7-7-7-7-7-7-7-7-7-7-7-7-7-|
--5--7-7-7-----7-7-----7-7-----7-|----------------------------------|
---------------------------------|----------------------------------|
---------------------------------|----------------------------------|
---------------------------------|----------------------------------|
---------------------------------|----------------------------------|

--9-9-9-9-9-9-9-9-9-9-9-9-9\----|------------------------|
--------------------------------|------------------------|
--------------------------------|--------------2---------|
--------------------------------|--------------2---------|
--------------------------------|--4---0---2---0---4--0--|
--------------------------------|--4---0---2-------4--0--|

------------------------|------------------------|------------------------|
------------------------|------------------------|------------------------|
--------------2---------|--------------2---------|--------------2---------|
--------------2---------|--------------2---------|--------------2---------|
--4---0---2---0---4-----|--4---0---2---0---4--0--|--4---0---2---0---4-----|
--4---0---2-------4-----|--4---0---2-------4--0--|--4---0---2-------4-----|

-----|------------------------|------------------------|-----|
-----|------------------------|------------------------|-----|
-----|--------------2---------|--------------2---------|-----|
-----|--------------2---------|--------------2---------|-----|
-----|--4---0---2---0---4--0--|--4---0---2---0---4-----|-----|
-----|--4---0---2-------4--0--|--4---0---2-------4-----|-----|

------------------------|------------------------||
------------------------|------------------------||
--------------2---------|--------------2---------||
--------------2---------|--------------2---------||
--4---0---2---0---4--0--|--4---0---2---0---4-----||
--4---0---2-------4--0--|--4---0---2-------4-----||
comments
We did not receive enough feedback on this tab! Please rate:
print report bad tab
1 2 3 4 5
I want to post or [tab]
guest
You may want to rate the tab now too:
select rating
Please do not post tabs as comments. Select "correction" instead!