Oops, an error
Loading. Please wait.

Delia Tab

1,145 views 6 this week
no commentswrite comment
1 2 3 4 5
please rate
Autoscroll
+/-
esc
set tempo
stop
Difficulty
novice
WARNING: You are trying to view
                                    content from Ultimate-Guitar.com
                                    in an unauthorized application,
                                    which is prohibited.

                                    Please use an official Ultimate
                                    Guitar Tabs application for iPhone,
                                    iPad or Android to access legitimate
                                    chords, guitar, bass, and drum tabs
                                    from Ultimate-Guitar.com database.

                                    Type "ultimate guitar tabs" in Apple
                                    App Store's or Android Market's
                                    search to find the application.
Tabbed by: Adam Dukowitz
Song: Delia
Band: The Canon Logic
www.purevolume.com/thecanonlogic

Verse  |  "She asked what was wrong with me..."
e|----------------|--3------------|
b|-7--3--8--------|--3------------|
g|-7--4--9--6-----|--4------------|
d|-7--4--9--7-----|--5------------|
a|-5--2--7--7-----|--5------------|
E|----------5-----|--3------------|

I said just take my hand...
e|--3--5--------------------------|
b|--3--5--------------------------|
g|--4--6--------------------------|
d|--5--7--------------------------|
a|--5--7--------------------------|
E|--3--5--------------------------|

Little riff here
e|-11p8p0------------------------------------------------------------|
b|--------11p8p0-----------------------------------------------------|
g|----------------10p8p0-----------8----8--10--10b--8------8---------|
d|------------------------10p8p0-----10----------------10-----10--8--|
a|-------------------------------------------------------------------|
E|-------------------------------------------------------------------|

These papers and formalities just sign beside the x...
e|--------------------------------|
b|--9--5-----------5--------------|
g|--9--6--5--6--8--6--------------|
d|--9--6--6--7--9--6--------------|
a|--7--4--6--7--9--4--------------|
E|--------4--5--7-----------------|

She's been livin in my head for such a long time...
e|------------------------------------|
b|-----9-----5-----9-----5------------|
g|--6--9--8--6--6--9--8--6------------|
d|--7--9--9--6--7--9--9--6------------|
a|--7--7--9--4--7--7--9--4------------|
E|--5-----7-----5-----7---------------|

Well I told you that I wasn't what you thought I was...
e|--5--0---------------------------------|
b|--5--0--2------------------------------|
g|--6--1--4------------------------------|
d|--7--2--4------------------------------|
a|--7--2--2------------------------------|
E|--5--0---------------------------------|

But I swear, I swear there's a moment there
e|--------------------------------------|
b|-----9--------------------------------|
g|--6--9--6-----------------------------|
d|--7--9--9-----------------------------|
a|--7--7--9-----------------------------|
E|--5-----7-----------------------------|

I came to Delia. I said, ?"You're beautiful, its true,?And I think I feel you.?Girl
are things that we should do.?"She asked what was wrong with me.??But I'm not a quitter, and
what's wrong is what is right."?And I think that hit her...she no longer wanted to
stared and wondered.??I said, "Just take my hand,and let it happen.?I'm going to
your manIf you should have me.?I'll do anything I can,My Delia??I see, I see your
has got you someplace else that I have been?The beat, beat of your heart has got you
your health, but I'm your man?Can you feel me at your side? Oh no!??These papers are
just sign beside the X and O's?I'm giving everything, I'll give you
I own?I write you songs describing all the feelings that you cause
words aren't anything?They can't describe my pain,?And my love of everything in you.?I
describe
been inside my head for such a long time?Delia why don't you just get up and go?You've
living in my head for such a long time?Delia why don't you just get up and go??I told you
I wasn't what you thought I was;?I'm only a shadow for the show,?But I swear there's a
there that simply passed me by,?And that moment was my moment...any moment for the
papers are formalities just sign beside the X and O's?I'm giving everything, I'll give 
everything I own?I write you songs describing all
feelings that you cause although??Those words aren't anything?They can't describe my
my love of everything in you.?I can't describe it!??You've been inside my head for such a
time?Delia why don't you just get up and go?You've been living in my head for such a
time?Delia why don't you just get up and go

Corrections -> SelfRevolution37@yahoo.com
comments
We did not receive enough feedback on this tab! Please rate:
1 2 3 4 5
I want to post or [tab]
guest
You may want to rate the tab now too:
select rating
Please do not post tabs as comments. Select "correction" instead!