Oops, an error
Loading. Please wait.

In My Pocket Bass Tab

1,440 views 6 this week
1 commentread comment
1 2 3 4 5
excellent!
x 4
Autoscroll
+/-
esc
set tempo
stop
Contributor
Difficulty
intermediate
Hey! There's an official Ultimate Guitar app which is ideal
for learning songs when you're away from computer. Get the app
WARNING: You are trying to view
                                    content from Ultimate-Guitar.com
                                    in an unauthorized application,
                                    which is prohibited.

                                    Please use an official Ultimate
                                    Guitar Tabs application for iPhone,
                                    iPad or Android to access legitimate
                                    chords, guitar, bass, and drum tabs
                                    from Ultimate-Guitar.com database.

                                    Type "ultimate guitar tabs" in Apple
                                    App Store's or Android Market's
                                    search to find the application.
Title: In My Pocket
Artist: The Cat Empire
Album: Two Shoes
Tab By: stratocaster12
Date: 14/04/11
Intro:

G|---------------------|---------------------|---------------------|---------------------|
D|-7---------7---------|-3---------5---------|-7---------7---------|-3---------5---------|
A|------7---------7----|------3---------5----|------7---------7----|------3---------5----|
E|---------------------|---------------------|---------------------|---------------------|


G|---------------------|---------------------|---------------------|---------------------------|
D|-7---------7---------|-3---------5---------|-7---------7---------|-3---------5---------------|
A|------7---------7----|------3---------5----|------7---------7----|------3--------2/5/0-------|
E|---------------------|---------------------|---------------------|---------------------------|

Verse1:

G|---------------------|---------------------|---------------------|---------------------|
D|-7---------7---------|-3---------5---------|-7---------7---------|-3---------5---------|
A|------7---------7----|------3---------5----|------7---------7----|------3---------5----|
E|---------------------|---------------------|---------------------|---------------------|


G|---------------------|---------------------|---------------------|---------------4/7/4-------|
D|-7---------7---------|-3---------5---------|-7---------7---------|-3---------5---------------|
A|------7---------7----|------3---------5----|------7---------7----|------3--------------------|
E|---------------------|---------------------|---------------------|---------------------------|


G|---------------------|---------------------|---------------------|---------------------|
D|-7---------7---------|-3---------5---------|-7---------7---------|-3---------5---------|
A|------7---------7----|------3---------5----|------7---------7----|------3---------5----|
E|---------------------|---------------------|---------------------|---------------------|


G|---------------------|---------------------|---------------------|---------------5/7/12------|
D|-7---------7---------|-3---------5---------|-7---------7---------|-3---------5---------------|
A|------7---------7----|------3---------5----|------7---------7----|------3--------------------|
E|---------------------|---------------------|---------------------|---------------------------|

Bridge:

G|--------------------|-----|-----|-----|-----|-----|-----|------------------------7---7---|
D|--------------------|-----|-----|-----|-----|-----|-----|--------------------------------|
A|--------------------|-----|-----|-----|-----|-----|-----|--------------------------------|
E|--------------------|-----|-----|-----|-----|-----|-----|--------------------------------|


G|---------------------------|------------------------|---------------------------|
D|---------------------------|------------------------|-----7---------------------|
A|-----------5-----------5---|-----------7--------7---|-------------7-------------|
E|------5------------5-------|------7---------7-------|-----------------8----7----|


G|------------------------|---------------------|---------------------|------------------------|
D|------------------------|---------------------|---------------------|--7---------------------|
A|-------------7---12/0---|----------5--------5-|----------7--------7-|----------7-------------|
E|-5-------5--------------|-----7---------7-----|-----7---------7-----|--------------8----7----|


G|------------------------|
D|------------------------|
A|------------------------|
E|-5--------5---0----3----|

Chorus:

G---------------------------------|-----------------0----0------0---|
D-------------2---------------2---|---------------------------------|
A-0----0--3-------0----0--3-------|---------0---3-----------2-------|
E---------------------------------|-1----1--------------------------|

G|-------------------------------|------------------------------|-------------------------------|
D|-2----2------2---3----3------3-|-0----0------0---2------------|-------------2---------------2-|
A|---------2---------------3-----|---------0-----------2/7/2----|-0----0--3-------0----0--3-----|
E|-------------------------------|------------------------------|-------------------------------|





G|-----------------0----0------0--|--------------------------------|---------------------------|
D|--------------------------------|-2----2------2---3----3------3--|-0----0------0---2---------|
A|---------0---3-----------2------|---------2---------------3------|---------0-----------2/7/2-|
E|-1----1-------------------------|--------------------------------|---------------------------|


First time:           
                   G|---------------------------------| 
                   D|---------------------------------|        
                   A|-0---0-------0---0-------12/0----| 
                   E|---------------------------------|


Then go back to verse 1 and repeat.

Second time:         
                   G|------------------------|------------------------|
                   D|-0----0----2------------|------------------------| 
                   A|----------------0---0---|-0--------------0---0---|
                   E|------------------------|------------------------|


G|----------------------|----------------------|----------------------|----------------------|
D|----------------------|----------------------|----------------------|----------------------|
A|-0--------------0---0-|-0--------------0---0-|-0---------12/0-----0-|-0--------------0---0-|
E|----------------------|----------------------|----------------------|----------------------|


G|------------------------|------------------------|---------------------|
D|------------------------|------------------------|---------------------|
A|-0--------------0---0---|-0--------------0---0---|-0---------12/0------|
E|------------------------|------------------------|---------------------|

Instrumental:

G|---------------------------|
D|---------------------------|
A|-0----3----0---3---2---0---|
E|---------------------------|

G|-------------------|-------------------------|-------------------|-------------------------|
D|-------------------|-------------------------|-------------------|-------------------------|
A|------3---------5--|-0----3----0---3---2---0-|------3---------5--|-0----3----0---3---2---0-|
E|-1---------3-------|-------------------------|-1---------3-------|-------------------------|


G|---------------------|-----------------------------|-----------------------------------|
D|---------------------|-----------------------------|-----------------------------------|
A|------3---------5----|-0----0--------0----0--------|-0----0--------0-------------------|
E|-1---------3---------|-----------------------------|-------------------3--1--0--1--3---|


G|-----------------------------|---------------------|-----------------------------|
D|-----------------------------|---------------------|-----------------------------|
A|-0----3----0------3--2---0---|------3---------5----|-0----3----0------3--2---0---|
E|-----------------------------|-1---------3---------|-----------------------------|


G|------------------|---------------------------|------------------|---------------------------|
D|------------------|---------------------------|------------------|---------------------------|
A|------3---------5-|-0----3----0------3--2---0-|------3---------5-|-0----3----0------3--2---0-|
E|-1---------3------|---------------------------|-1---------3------|---------------------------|


G|---------------------5/7/12------|
D|-3----3------3---5---------------|
A|---------3-----------------------|
E|---------------------------------|

Bridge2:

G|-------------------------------|-------------------------------|
D|-0-------0-----------0-------0-|-2-------2-----------2-------2-|
A|-----------------2-------2-----|-----------------2-------2-----|
E|-------------------------------|-------------------------------|


G|-2-------2----0h2p0--------0-----|-2-------2----0h2p0--------0---2-|
D|-----------------------2-------2-|-----------------------2---------|
A|---------------------------------|---------------------------------|
E|---------------------------------|---------------------------------|





G|-7-----------------------------|-------------------------------|
D|---------0-----------0-------0-|-2-------2-----------2-------2-|
A|-----------------2-------2-----|-----------------2-------2-----|
E|-------------------------------|-------------------------------|


G|-2-------2----0h2p0--------0-----|-2-------2----0h2p0--------0---2-|
D|-----------------------2-------2-|-----------------------2---------|
A|---------------------------------|---------------------------------|
E|---------------------------------|---------------------------------|


G|-------------------------------|-------------------------------0-|
D|-0-------0-----------0-------0-|-2-------2----0h2p0--------0-----|
A|-------------------------------|-----------------------2---------|
E|-------------------------------|---------------------------------|


G|-2-------2----0h2p0--------0-----|--------------0--5--5------5-----|
D|-----------------------2-------2-|-7-------7-------------7-------7-|
A|---------------------------------|---------------------------------|
E|---------------------------------|---------------------------------|




G|-7-------7---------------------|-------------------------------|
D|---------------------0-------0-|-2-------2-----------2-------2-|
A|-----------------2-------2-----|-----------------2-------2-----|
E|-------------------------------|-------------------------------|


G|---------------------|---------------------|
D|-7----5----3----2----|-0----2----3----5----|
A|---------------------|---------------------|
E|---------------------|---------------------|

Final Chorus:

G---------------------------------|-----------------0----0------0-|
D-------------2---------------2---|-------------------------------|
A-0----0--3-------0----0--3-------|---------0---3-----------2-----|
E---------------------------------|-1----1------------------------|


G|---------------------------------|---------------------------------|
D|-2----2------2---3----3------3---|-0----0------0---2---------------|
A|---------2---------------3-------|---------0-----------2/7/2-------|
E|---------------------------------|---------------------------------|


G|---------------------------------|-----------------0----0------0---|
D|-------------2---------------2---|---------------------------------|
A|-0----0--3-------0----0--3-------|---------0---3-----------2-------|
E|---------------------------------|-1----1--------------------------|


G|---------------------------------|---------------------------------|
D|-2----2------2---3----3------3---|-0----0------0---2---------------|
A|---------2---------------3-------|---------0-----------2/7/2-------|
E|---------------------------------|---------------------------------|


G|---------------------------------|-----------------0----0------0---|
D|-------------2---------------2---|---------------------------------|
A|-0----0--3-------0----0--3-------|---------0---3-----------2-------|
E|---------------------------------|-1----1--------------------------|


G|---------------------------------|---------------------------------|
D|-2----2------2---3----3------3---|-0----0------0---2---------------|
A|---------2---------------3-------|---------0-----------2/7/2-------|
E|---------------------------------|---------------------------------|



G|---------------------------------|-----------------0----0------0---|
D|-------------2---------------2---|---------------------------------|
A|-0----0--3-------0----0--3-------|---------0---3-----------2-------|
E|---------------------------------|-1----1--------------------------|


G|---------------------------------|------------------------|---------------------|
D|-2----2------2---3----3------3---|-0----0----2------------|---------------------|
A|---------2---------------3-------|----------------0---0---|-0-------------------|
E|---------------------------------|------------------------|---------------------|
comments
print report bad tab
1 comment total.
+1 reply
knight & jester wrote on April 27 2011, 10:33 pm

I loved this! thank you

I want to post or [tab]
guest
You may want to rate the tab now too:
select rating
Please do not post tabs as comments. Select "correction" instead!