Oops, an error
Loading. Please wait.

Two Shoes Bass Tab

10,055 views 12 this week
no commentswrite comment
1 2 3 4 5
excellent!
x 1
Autoscroll
+/-
esc
set tempo
stop
Contributor
Difficulty
intermediate
Hey! There's an official Ultimate Guitar app which is ideal
for learning songs when you're away from computer. Get the app
WARNING: You are trying to view
                                    content from Ultimate-Guitar.com
                                    in an unauthorized application,
                                    which is prohibited.

                                    Please use an official Ultimate
                                    Guitar Tabs application for iPhone,
                                    iPad or Android to access legitimate
                                    chords, guitar, bass, and drum tabs
                                    from Ultimate-Guitar.com database.

                                    Type "ultimate guitar tabs" in Apple
                                    App Store's or Android Market's
                                    search to find the application.
Ok, this is my first tab, and i know it's not 100% right, but this is what i play and it 
fine to me.
Please comment and tell me corrections, or riffs you think sound better then what I have hear.

Intro:

G|------------------|   |----------------------|
D|------------------| x3|----------------------|
A|-5--54--45----4---|   |-------------4/15-----|
E|------------56-65-|   |-X--XX--XX--X---------|


Verse:
  H   ee q  e h  eeeeeh e e q e h  eeeee
G|----------------------------------------|
D|----------5-3--33-----------3h5--55-----|
A|5---53h5---------0123-3-1h3--------013--|
E|----------------------------------------|

One day one woman asked him

‘what do you to survive?’

he said ‘oh my dear listen here’

and this is what he cried

On my feet I wear two shoes for dancing
‘dancing to be free’
my feet they’re paying tribute to
the Bobby Marley legacy

Oh the “Bobby Marley Legacy” part, instead of
-------                ---------|
55-----                5--55--5-|
--013--                ---------|
-------  ,  just play  ---------|

My knees they’ve got some cuts and bruises
from skating all my days
when i’m skating with my friends
my troubles drift away

I say my legs they’re wearing baggy pants
I like to move around
cos getting down and jumping up
these are some good things that I found

Chorus:

G|----------------------------------------|
D|-------235--53--5/7---------------------|
A|5---555-------5----7/5--55-0123--31-/7--|  reapeat twice more
E|----------------------------------------|
End on
G|-------------------------------------------------|
D|-------235--53--5/7------------------------------|
A|5---555-------5----7/5--55-0123--31-/8-3-------1-|
E|-------------------------------------------------|


Aeehhhiiiaaaaa
boom shak the empire be rising
Aeehhhiiiaaaaa
boom shak we making some lovin
Aeehhhiiiaaaaa
boom shak the greedy men running
Aeehhhiiiaaaaa
boom shak got two shoes for dancin

My waist it’s got a slinky belt
with a clip that’s quick to open
because loving is the sweetest thing
and from my waist it happen

And my stomachs got some tasty food
that’s making me feel good
cos sharing some meals is something
i wish the world could do

And my chest it wears a singlet
ah my chest it beating proud
my chest suggest I am a man
that no institution can knock down
And around my neck is superstition
hanging from a chain
because i’ve got my gods but in the end
I make my own way

CHORUS


Bridge
Whole notes
G|----------------------------------------|
D|----------------------------------------|
A|5-------3-------1-------0---------------|
E|----------------------------------------|
Repeat this until Felix starts singing “mouth”

mouth it’s got a great big smile
that shows some great big teeth
to friends it brings a happiness
and to enemies it means defeat

And my eyes they’ve got some vision
that can see through many lies
ah my eyes they look for better things
the better things to see in life

  w       w       w       h   q q
G|----------------------------3-3---------|
D|----------------2-------5---------------|
A|5-------3-------------------------------|
E|----------------------------------------|
  Ears....play....not.....songs

  w       w       w       h   q q
G|----------------------------333/7-------|
D|----------------222222225555------------|
A|5555555533333333------------------------|
E|----------------------------------------|
  On......dancing.feet....bobby

And my ears are wearing head phones
that do play my favourite songs
not music i’m told to like
but the songs that make me dance along

Cos on my feet are shoes for dancing
‘dancing to be free’
my feet they’re paying tribute to
the bobby marley legacy

Chorus x2
comments
We did not receive enough feedback on this tab! Please rate:
print report bad tab
1 2 3 4 5
I want to post or [tab]
guest
You may want to rate the tab now too:
select rating
Please do not post tabs as comments. Select "correction" instead!