Oops, an error
Loading. Please wait.

Wine Song Tab

2,511 views 18 this week
no commentswrite comment
1 2 3 4 5
excellent!
x 1
Autoscroll
+/-
esc
set tempo
stop
Contributor
Difficulty
intermediate
Hey! There's an official Ultimate Guitar app which is ideal
for learning songs when you're away from computer. Get the app
WARNING: You are trying to view
                                    content from Ultimate-Guitar.com
                                    in an unauthorized application,
                                    which is prohibited.

                                    Please use an official Ultimate
                                    Guitar Tabs application for iPhone,
                                    iPad or Android to access legitimate
                                    chords, guitar, bass, and drum tabs
                                    from Ultimate-Guitar.com database.

                                    Type "ultimate guitar tabs" in Apple
                                    App Store's or Android Market's
                                    search to find the application.
The Wine Song by The Cat Empire

Capo 5th fret

Intro/Verse (x4):

   Am           E7           C            D            
e|0-----------|0-----------|0-----------|2-----------|
B|--------1---|--------0---|--------3-1-|--------3---|
G|------2---2-|------1---1-|------0-----|------2---2-|
D|----2---2---|----0---0---|----2---2---|----4---4---|
A|0-----------|2-----------|3-----------|0-----------|
E|------------|------------|------------|------------|

F            C            E7           Am
|0-----------|0-----------|0-----------|0-----------|
|--------1---|--------1---|--------0---|--------1---|
|------2---2-|------0---0-|------1---1-|------2---2-|
|----3---3---|----2---2---|----0---0---|----2---2---|
|3-----------|3-----------|2-----------|0-----------|
|------------|------------|------------|------------|
 
  Songs   and  Melodies     Change  and  Change  and  Sway but...  Still ....   Same


Pre Chorus (x4):

  F            C            E7           Am
e|1-----------|0-----------|0-----------|0-----------|
B|--------1---|--------1---|--------0---|--------1---|
G|------2---2-|------0---0-|------1---1-|------2---2-|
D|----3---3---|----2---2---|----0---0---|----2---2---|
A|3-----------|3-----------|2-----------|0-----------|
E|------------|------------|------------|------------|
  Tomorrow     is        a- nother       day


       F        E7
  on a river of red red wine


e|------------|
B|------------|
G|------------|
D|------------|
A|------------|
E|0---2---4---|


Chorus: (4/4; tempo increasing)

  Am                        Dm                        Am                       E
e|----0-------0---|      e|----1-------1---|       e|----0-------0---|      e|----0-------0---|
B|----1-------1---|      B|----3-------3---|       B|----1-------1---|      B|----0-------0---|
G|----2-------2---|      G|----2-------2---|       G|----2-------2---|      G|----1-------1---|
D|----2-------2---| x4   D|0---------------| x4    D|----2-------2---| x4   D|----2-------2---| x4
A|0---------------|      A|--------0-------|       A|0---------------|      A|2---------------|
E|--------0-------|      E|----------------|       E|--------0-------|      E|--------0-------|
  Run     run               Fun     fun               Drink   drink            Sun     Sun

Repeat, but end with:

E    F    E
Sun, sun, sun



Lyrics:

Song and melodies change and change
And sway
But they still stay the same
The songs that we sung when the dark days come
Are the songs that we sung when we chased them away
If I ever found a pot of gold
I'd buy bottles untold of the nectar of the vines
I'm going to die with a twinkle in my eye
'cause I sung songs spun stories loved laughed and drank wine

Tomorrow is another day
The cats are out to play, to play
That old rusty spaceship wants to sail
Into the milky way again
On a river of red red wine

Run...
(let's have some)
Fun...
(we'll)
Drink...
(a toast to the)
Sun...

In summer the bushfires rage and rage
And rage
On such beautiful days
And we fight them with water that runs through the cracks
Water we're desperately trying to save
So I'll just live on wine and water my vines
And sleep on the wind with the fires right behind
And sing on the beaches and dance through the night
Oh we'll cry 'pass the wine, pass the wine, pass the wine'

Run...
(let's have some)
Fun...
(we'll)
Drink...
(a toast to the)
Sun...

Oh what a beautiful day today!
Today's a day to celebrate
Grab your bucket, grab your spade
We're heading down to Half Moon Bay
I saw a plane go into a cloud
I'm drunk I'm happy I'm singing and loud
Two o'clock in the arvo, but hey that's allowed...
I'm having a good time and of that I am proud 
comments
We did not receive enough feedback on this tab! Please rate:
print report bad tab
1 2 3 4 5
I want to post or [tab]
guest
You may want to rate the tab now too:
select rating
Please do not post tabs as comments. Select "correction" instead!