Oops, an error
Loading. Please wait.

Love Tab

610 views 15 this week
1 commentread comment
1 2 3 4 5
excellent!
x 4
Autoscroll
+/-
esc
set tempo
stop
Contributor
Difficulty
Tuning
intermediate
B F# B E G# C#
WARNING: You are trying to view
                                    content from Ultimate-Guitar.com
                                    in an unauthorized application,
                                    which is prohibited.

                                    Please use an official Ultimate
                                    Guitar Tabs application for iPhone,
                                    iPad or Android to access legitimate
                                    chords, guitar, bass, and drum tabs
                                    from Ultimate-Guitar.com database.

                                    Type "ultimate guitar tabs" in Apple
                                    App Store's or Android Market's
                                    search to find the application.
----------------------------------------------------------------------------------------
                             Love. - The Chariot
----------------------------------------------------------------------------------------
Tabbed by: millarso (Jake Miller)
E-mail: millarso2.0@gmail.com

Tuning: Drop B

Intro
C#|---------------0--------|
G#|---------------0--------|
E |------5--------0--------|
B |-2----5----1x-----------|
F#|-2----3----1x-----------|
B |-2---------1x-------12\-|

SECTION 1
Both Guitars
C#|------------------------------|
G#|------------------------------|
E |------------5-5--5--5--3------|
B |-2-2--2--2--5-5--5--5--1------|x3
F#|-2-2--2--2--3-3--3--3--1(x16)-|
B |-2-2--2--2-------------1------|

C#|-----------------0-----------------------------0-|
G#|-----------------0-----------------------------0-|
E |------5----3--3--0--3--4--(4)--4-4-4--4--4--3--0-|
B |-2----5----1--1-----1--2--(2)--2-2-2--2--2--1----|
F#|-2----3----1--1-----1--2--(2)--2-2-2--2--2--1----|
B |-2---------1--1-----1--2--(2)--2-2-2--2--2--1----|

SECTION 2
Both Guitars
C#|------------------------------|
G#|------------------------------|
E |------------5-5--5--5--3------|
B |-2-2--2--2--5-5--5--5--1------|x2
F#|-2-2--2--2--3-3--3--3--1(x16)-|
B |-2-2--2--2-------------1------|

Guitar 1
C#|--------------------------------------------------------------------|
G#|--------------------------------------------------------------------|
E |-9-9-9-9-9-9-9-9-11-11-11-11-12-12-12-12-8-8-8-8-8-8-8-8-8-9--9--9--|
B |-x-x-x-x-x-x-x-x--x--x--x--x--x--x--x--x-x-x-x-x-x-x-x-x-x-x--x--x--|
F#|-7-7-7-7-7-7-7-7--9--9--9--9-10-10-10-10-6-6-6-6-6-6-6-6-6-7--7--7--|
B |--------------------------------------------------------------------|

Guitar 2
C#|-------------------------------------------------|
G#|-------------------------------------------------|
E |------------5-5--5--5--3-3-3-3-3-3-3-3-3-4--4--4-|
B |-2-2--2--2--5-5--5--5--1-1-1-1-1-1-1-1-1-2--2--2-|
F#|-2-2--2--2--3-3--3--3--1-1-1-1-1-1-1-1-1-2--2--2-|
B |-2-2--2--2-------------1-1-1-1-1-1-1-1-1-2--2--2-|

Guitar 1
C#|---------------------------------------------------------------------------|
G#|---------------------------------------------------------------------------|
E |-9-9-9-9-9-9-9-9-11-11-11-11-12-12-12-12-15-15-15-15-15-15-15-15-3-4--4--4-|
B |-x-x-x-x-x-x-x-x--x--x--x--x--x--x--x--x--x--x--x--x--x--x--x--x-1-2--2--2-|
F#|-7-7-7-7-7-7-7-7--9--9--9--9-10-10-10-10-13-13-13-13-13-13-13-13-1-2--2--2-|
B |-----------------------------------------------------------------1-2--2--2-|

Guitar 2
C#|-------------------------------------------------|
G#|-------------------------------------------------|
E |------------5-5--5--5--3-3-3-3-3-3-3-3-3-4--4--4-|
B |-2-2--2--2--5-5--5--5--1-1-1-1-1-1-1-1-1-2--2--2-|
F#|-2-2--2--2--3-3--3--3--1-1-1-1-1-1-1-1-1-2--2--2-|
B |-2-2--2--2-------------1-1-1-1-1-1-1-1-1-2--2--2-|

SECTION 3
Both Guitars
C#|-------0-----0-----0---------------0------------------------------0-----0-----0--|
G#|-------0-----0-----0---------------0------------------------------0-----0-----0--|
E |-------0-----0-----0---------------0-----------3-3-3-3-3----------0-----0-----0--|
B |-1--1-----1-----1-----x-x--x-x--1----1--2--2-2-3-3-3-3-3-1-----------1-----1-----|
F#|-1--1-----1-----1-----x-x--x-x--1----1--2--2-2-1-1-1-1-1-1--1-2-1----1-----1-----|
B |-1--1-----1-----1-----x-x--x-x--1----1--2--2-2-----------1--1-2-1----1-----1-----|
                                                               . . .
C#|--------------0---------------------|
G#|--------------0---------------------|
E |--------------0---------------------|
B |-x-x--x-x--1----1--2--2-2-2-2-2-2-2-|
F#|-x-x--x-x--1----1--2--2-2-2-2-2-2-2-|
B |-x-x--x-x--1----1--2--2-2-2-2-2-2-2-|

SECTION 4 (Not sure on Guitar 2 rhythms)
Guitar 1
C#|-12-----14-----15-----11-----11-----11-----11-----11-----11-----11-----11---|
G#|---12-----12-----12-----12-----12-----12-----12-----12-----12-----12-----12-|
E |-----12-----12-----12-----12-----12-----12-----12-----12-----12-----12------|
B |----------------------------------------------------------------------------|
F#|----------------------------------------------------------------------------|
B |----------------------------------------------------------------------------|

Guitar 2                      (Just mess with these 2 notes for awhile)
C#|--0----0-2------3--------0-----0-----0---0-----0-----0---0-----0---|
G#|-------------0------0--4---4-4---4-4---4---4-4---4-4---4---4-4---4-|
E |-----------0------0------------------------------------------------|
B |-------------------------------------------------------------------|
F#|-------------------------------------------------------------------|
B |-------------------------------------------------------------------|

Guitar 1
C#|-12-----8---8-10-----7-----6-----6-----6-----6-----6-----6-----|
G#|---12-----8--------8-----8-----8-----8-----8-----8-----8-----8-|
E |-----12----------9-----9-----9-----9-----9-----9-----9-----9---|
B |---------------------------------------------------------------|
F#|---------------------------------------------------------------|
B |---------------------------------------------------------------|

Guitar 2
C#|-0----0-----------------0-----0-----0---0-----0-----0-|
G#|--------0----0-1----1-4---4-4---4-4---4---4-4---4-4---|
E |------------------------------------------------------|
B |------------------------------------------------------|
F#|------------------------------------------------------|
B |------------------------------------------------------|

Guitar 1
C#|-12-----14-----15-----11-----11-----11-----11-----11-----11-----11-----11---|
G#|---12-----12-----12-----12-----12-----12-----12-----12-----12-----12-----12-|
E |-----12-----12-----12-----12-----12-----12-----12-----12-----12-----12------|
B |----------------------------------------------------------------------------|
F#|----------------------------------------------------------------------------|
B |----------------------------------------------------------------------------|

Guitar 2
C#|-0----0-2----2-3----3-7----7-6-----6-----6---6-----6-----6---6-----6---|
G#|-------------------------------5-5---5-5---5---5-5---5-5---5---5-5---5-|
E |-----------------------------------------------------------------------|
B |-----------------------------------------------------------------------|
F#|-----------------------------------------------------------------------|
B |-----------------------------------------------------------------------|

Guitar 1
C#|-12-----8---8-10-----7-----6-----6-----6-----6-----6-----6-----|
G#|---12-----8--------8-----8-----8-----8-----8-----8-----8-----8-|
E |-----12----------9-----9-----9-----9-----9-----9-----9-----9---|
B |---------------------------------------------------------------|
F#|---------------------------------------------------------------|
B |---------------------------------------------------------------|

Guitar 2
C#|-0----0-----------------0-----0-----0---0-----0-----0-|
G#|--------0----0-1----1-4---4-4---4-4---4---4-4---4-4---|
E |------------------------------------------------------|
B |------------------------------------------------------|
F#|------------------------------------------------------|
B |------------------------------------------------------|

SECTION 4
Guitar 1
C#|------------------------------|
G#|------------------------------|
E |--------------4-------5-5-5-4-|
B |--------------2-------5-5-5-4-|
F#|--------------2-(x16)-3-3-3-2-|
B |-(audio clip)-2---------------|

Guitar 2
C#|------------------------------|
G#|------------------------------|
E |--------------4---------------|
B |--------------2---------------|
F#|--------------2-(x16)---------|
B |-(audio clip)-2---------------|

SECTION 5
Both Guitars
C#|-----------------------------------------------------------------|
G#|-----------------------------------------------------------------|
E |-------5-5-5-4-4-4-4-4-4-4-4-4-4-5-5-5-4-4-4---------------------|
B |-2-2-2-5-5-5-4-4-4-4-4-4-4-4-4-4-5-5-5-4-4-4-1-1-1-1-1-1-1-1-1-1-|x2
F#|-2-2-2-3-3-3-2-2-2-2-2-2-2-2-2-2-3-3-3-2-2-2-1-1-1-1-1-1-1-1-1-1-|
B |-2-2-2---------------------------------------1-1-1-1-1-1-1-1-1-1-|

Guitar 1
C#|-----------------------------------------------------------------|
G#|-----------------------------------------------------------------|
E |-9-9-9-9-9-9-8-8-8-8-8-8-8-8-8-8-5-5-5-5-5-5-4-4-4-4-4-4-4-4-----|
B |-x-x-x-x-x-x-x-x-x-x-x-x-x-x-x-x-x-x-x-x-x-x-x-x-x-x-x-x-x-x-----|
F#|-7-7-7-7-7-7-6-6-6-6-6-6-6-6-6-6-3-3-3-3-3-3-2-2-2-2-2-2-2-2-7\--|
B |-----------------------------------------------------------------|

Guitar 2
C#|-----------------------------------------------------------------|
G#|-----------------------------------------------------------------|
E |-------5-5-5-4-4-4-4-4-4-4-4-4-4-5-5-5-4-4-4---------------------|
B |-2-2-2-5-5-5-4-4-4-4-4-4-4-4-4-4-5-5-5-4-4-4-1-1-1-1-1-1-1-1-1-1-|
F#|-2-2-2-3-3-3-2-2-2-2-2-2-2-2-2-2-3-3-3-2-2-2-1-1-1-1-1-1-1-1-1-1-|
B |-2-2-2---------------------------------------1-1-1-1-1-1-1-1-1-1-|

SECTION 6
Guitar 1
C#|--------------0---2---3---------------------0-----|
G#|-----------/5---5---5---5\------------------0-----|
E |-----5---4-----------------5---4------------0-----|
B |-2---5---4-----------------5---4---1--------------|
F#|-2---3---2-----------------3---2---1--1-2-1-------|
B |-2---------------------------------1--1-2-1-------|
                                         . . .
Guitar 2
C#|--------------------------------------------0-----|
G#|--------------------------------------------0-----|
E |-----5---4-----------------5---4------------0-----|
B |-2---5---4-----------------5---4---1-----------2\-|
F#|-2---3---2-----------------3---2---1--1-2-1----2\-|
B |-2---------------------------------1--1-2-1----2\-|
                                         . . .

SECTION 7
Guitar 1
C#|----------------------------|
G#|----------------------------|
E |----------------------------|
B |-3-3---3-3---3-3---3--3--3--|x4
F#|-x-x---x-x---x-x---x--x--x--|
B |-2-2---2-2---2-2---2--2--2--|

Both Guitars
C#|----------|
G#|----------|
E |----------|
B |-2--0--3--|
F#|-2--0--3--|
B |-2--0--3--|

Both Guitars
C#|----------------------------------------------|
G#|----------------------------------------------|
E |-----4-4-4-------4-4-4-------4-4-4------------|
B |-3-3---------3-3---------3-3---------3--3--3--|x2
F#|-x-x---------x-x---------x-x---------x--x--x--|
B |-2-2-------0-2-2-------0-2-2-------0-2--2--2--|

Guitar 1
C#|----------------------------------------------|
G#|----------------------------------------------|
E |-4-----4-----4-----4-----4-----4-----4--4--4--|
B |-3-----3-----3-----3-----3-----3-----3--3--3--|
F#|-x-----x-----x-----x-----x-----x-----x--x--x--|
B |-2-----2-----2-----2-----2-----2-----2--2--2--|

Guitar 2
C#|----------------------------------------------|
G#|----------------------------------------------|
E |----------------------------------------------|
B |-3-3-x-x-x-x-3-3-x-x-x-x-3-3-x-x-x-x-3--3--3--|
F#|-x-x-x-x-x-x-x-x-x-x-x-x-x-x-x-x-x-x-x--x--x--|
B |-2-2-x-x-x-x-2-2-x-x-x-x-2-2-x-x-x-x-2--2--2--|

Guitar 1
C#|----------------------------------------------|
G#|-----------------6-6-6------------------------|
E |-----4-4-4-------------------4-4-4------------|
B |-3-3---------3-3---------3-3---------3--3--3--|x2
F#|-x-x---------x-x---------x-x---------x--x--x--|
B |-2-2-------0-2-2-------0-2-2-------0-2--2--2--|

Guitar 2
C#|----------------------------------------------|
G#|----------------------------------------------|
E |----------------------------------------------|
B |-3-3-x-x-x-x-3-3-x-x-x-x-3-3-x-x-x-x-3--3--3--|
F#|-x-x-x-x-x-x-x-x-x-x-x-x-x-x-x-x-x-x-x--x--x--|
B |-2-2-x-x-x-x-2-2-x-x-x-x-2-2-x-x-x-x-2--2--2--|

ENDING
Both Guitars (Let guitar feed back between notes and after last chord)
C#|----------------------------------------------|
G#|----------------------------------------------|
E |-----4~----------4~----------4~---------------|
B |-3-3---------3-3---------3-3---------2--0--3--|x2
F#|-x-x---------x-x---------x-x---------2--0--3--|
B |-2-2---------2-2---------2-2---------2--0--3--|

Kind of a crazy, messy song, especially at the end.
I hope it all sounds about right.
Please rate & comment.
Thanks,
millarso

************************************

| /   slide up
| \   slide down
| h   hammer-on
| p   pull-off
| ~   vibrato
| +   harmonic
| x   Mute note
| b   Bend
| pb  Pre-bend
| br  Bend release
| pbr Pre-bend release
| brb Bend release bend

************************************
comments
print report bad tab
1 comment total.
0 reply
straightedge63 wrote on March 16 2014, 04:46 pm

sounds awesome to me!

I want to post or [tab]
guest
You may want to rate the tab now too:
select rating
Please do not post tabs as comments. Select "correction" instead!