Oops, an error
Loading. Please wait.

London Calling Bass Tab

ver4
ver4

Whole song

More versions @911Tabs.com
218 views 1 this week
no commentswrite comment
1 2 3 4 5
please rate
add to favorites launch autoscroll
font size
0
reset
Autoscroll
+/-
esc
set tempo
stop
Contributor
Difficulty
novice
WARNING: You are trying to view
                                    content from Ultimate-Guitar.com
                                    in an unauthorized application,
                                    which is prohibited.

                                    Please use an official Ultimate
                                    Guitar Tabs application for iPhone,
                                    iPad or Android to access legitimate
                                    chords, guitar, bass, and drum tabs
                                    from Ultimate-Guitar.com database.

                                    Type "ultimate guitar tabs" in Apple
                                    App Store's or Android Market's
                                    search to find the application.
-------------------------------------------------------------------------------
                             LONDON CALLING - The Clash
-------------------------------------------------------------------------------
Tabbed by: Emilym80
E-mail: Emilym80@hotmail.com

Tuning:

I decided to do this one because I can't find a tab that's 100 percent
accurate. This is really simple- email me with questions/comments etc.

Intro- Riff 1
G|---------------------------------------------------------------------------|
D|-------------10------------------------------------------------------------|
A|-2/7-10-7-10----2/7-10-7-10------------------------------------------------|
E|----------------------------8----------------------------------------------|

Verse- Riff 2
G|---------------------------------------------------------------------------|
D|---2---------3-------------------------------------------------------------|
A|-2---2-0h2h3---2-0h1h2-----2-0h1h2-----------------------------------------|
E|-------------------------3---------3---------------------------------------|

Chorus A- Riff 3
G|---------------------------------------------------------------------------|
D|---2--2-2-4-5--5-5---------------------------------------------------------|
A|-2------------------5------------------------------------------------------|
E|---------------------------------------------------------------------------|
           *stop here on 4th repeat, move to riff 4
Chorus B- Riff 4
G|---------------------------------------------------------------------------|
D|---------------------------------------------------------------------------|
A|-5-4-3-2-------------------------------------------------------------------|
E|---------------------------------------------------------------------------|

Song structure-
Riff 1 x2
Riff 2 x4
Riff 3 x4 (see *)
Riff 4 x2
Riff 2 x4
Riff 3 x4 (see *)
Riff 4 x2
Riff 2 x4
Riff 3 x4 (see *)
Riff 4 x2
Play E 2nd fret on d string then...
Riff 1 x4
Play another E and hold
"I've never felt so much alike..."
And voila.

Key- h= hammer on
     /= slide (from fret to fret while holding note)
comments
We did not receive enough feedback on this tab! Please rate:
print report bad tab
1 2 3 4 5
I want to post or [tab]
guest
You may want to rate the tab now too:
select rating
Please do not post tabs as comments. Select "correction" instead!