Oops, an error
Loading. Please wait.

Medisin Tab

4,007 views 1 this week
6 commentsread comments
1 2 3 4 5
excellent!
x 4
Autoscroll
+/-
esc
set tempo
stop
Contributor
Difficulty
Tuning
intermediate
C# G# C# F# A# D#
Hey! There's an official Ultimate Guitar app which is ideal
for learning songs when you're away from computer. Get the app
WARNING: You are trying to view
                                    content from Ultimate-Guitar.com
                                    in an unauthorized application,
                                    which is prohibited.

                                    Please use an official Ultimate
                                    Guitar Tabs application for iPhone,
                                    iPad or Android to access legitimate
                                    chords, guitar, bass, and drum tabs
                                    from Ultimate-Guitar.com database.

                                    Type "ultimate guitar tabs" in Apple
                                    App Store's or Android Market's
                                    search to find the application.
Medisin
The Classic Crime
The Silver Cord


Tuning:Drop Db

.=palm mute
p=pull off
h=hammer on
sd=slide down
/=slide up
b=bend




Guitar 1
Clean
e|----------------------------|
B|----------------------------|
G|-14~------------------------|Repeat
D|---------------12~------15~-|
A|----------------------------|
E|----------------------------|

Ryth. Fig. 1
Guitar 2
(o:15)
e|-----------------------------------------|
B|---0----0----0----0----6----6----0----0--|
G|--5-5--5-5--5-5--5-5--7-7--7-7--5-5--5-0-|
D|-7----7----7----7----0----0--------------|X4
A|-------------------------------8----8----|
E|-----------------------------------------|

e|----------------------|
B|--3-0-3--3-0-3--------|
G|-0------0------x2-----|X2
D|----------------------|starting at ryth. fig. 1
A|----------------------|
E|----------------------|

Ryth. Fig. 2
Guitar 1
e|------------------------------------------------|
B|------------------------------------------------|
G|------------------------------------------------|
D|------------------------------------------------|
A|-------------5h7p5-0-55-5sd---------------------|
E|//-77-7sd------------------------3-33-3--33-3-5-|
     ..                ..            ..    ..                                       

e|-----------------------------------------------------------------|
B|-----------------------------------------------------------------|
G|-----------------------------------------------------------------|
D|-----------------------------------------------------------------|
A|-------------5h7p5-0-55-5sd---------------------5555555555555555-|
E|---77-7sd------------------------3-33-3--33-3-3-5555555555555555-|
     ..                ..            ..    ..     ............                         


 

Pre-chorus
Guitar 2
*Not exact rythm
e|--------|------------|
B|--------|------------|
G|--------|------------|Only play 3's
D|-7----0-|-7-7b-0--3--|first time
A|-7----0-|-7-7b-0--3--|
E|-7----0-|-7-7b-0--3--|

Guitar 1
Listen Closely to hear this part
e|----------------------------|
B|------------------------8---|
G|-9-99-9-77-7-5-5----7---9---|
D|--------------------7-------|
A|----------------------------|
E|----------------------------|



Chorus
Both Guitar
e|------------------------------5-----------7-|
B|-----8----------8-------------6-------------|
G|-----9----------9---------------------------|
D|-7-7--------7-7------7-5--3-3--------2----5-|
A|-7-7--------7-7------7-5--3-3--------2----5-|
E|-7-7--------7-7------7-5--3-3--------2----5-|


Post-chorus:
First part of ryth. fig. 1+2

Verse 2:
Same as verse 1




Interlude
Both Guitars
listen for strumming
e|---------------------------------|
B|---------------------------------|well call this
G|-2---4---5---7-----------------5-|RF3
D|-2---5---5---7---3---5---2---5-5-|
A|-0---2---3---5---3---5---2---5-3-|
E|-----------------3---5---2---5---|




Solo
Guitar 1

e|-7-8-7-5--7-8-7---------5h8p5------5h8p8---10p8h10p8h10p8h10p8-12p8h12p8h12p8h12p8-|
B|----------------8---5h8--------5h8-------------------------------------------------|
G|-----------------------------------------------------------------------------------|
D|-----------------------------------------------------------------------------------|
A|-----------------------------------------------------------------------------------|
E|-----------------------------------------------------------------------------------|

Guitar 2:
Play RF3



Solo Continued
Guitar 1

e|-17p0-15p0-13p0-15p0-13p0-12p0-13p0-12p0-10p0-12p0-10p0-8p0-10p0-8p0-7h8p7p0-|
B|-----------------------------------------------------------------------------|
G|-----------------------------------------------------------------------------|repeat
D|-----------------------------------------------------------------------------|as
A|-----------------------------------------------------------------------------|needed
E|-----------------------------------------------------------------------------|

Guitar 2
e|-----------------------------------|
B|-----------------------------------|
G|-----------------------------------|
D|-7-7-7sd----7-5--3-3-3sd----2---5--|
A|-7-7-7sd-X2-7-5--3-3-3sd----2---5--|
E|-7-7-7sd----7-5--3-3-3sd----2---5--|


Solo continued
Guitar 1

e|-15-13-12----------------------|
B|----------13-x2-10~-12~-8~-13~-|
G|-------------------------------|
D|-------------------------------|
A|-------------------------------|
E|-------------------------------|

Guitar2: Repeat RF3


Outro 
guitar 1  P.H.    P.H.         
e|---------------------------------------------------------------|
B|---------------------------------------------------------------|
G|-14~-----14~------------------14~------------------------------|
D|----------------12~-----15~------------------------------------|
A|---------------------------------------------------------------|
E|---------------------------------------------------------------|

Guitar 2:
Play first part of rythm figure 1



That's the song
I'd say it's probably the hardest song on the album
If you're having trouble with the solo just take it slow at first

Please comment and rate
comments
print report bad tab
6 comments total. Showing first comments.
0 reply
wake behind you wrote on August 15 2008, 05:57 pm

excellent tab.

the solo is spot on, as are the chords. tje verse you've tabbed here is much better sounding than the one I've been playing.

the only suggestion I would make it that the lead guitar part for the intro that gets repeated can be rung out nicely on the top 3 strings without having to lift a finger:

 
e|------5~~----------------|
B|-----------------6~~-----|
G|-----------7~~-----------|
D|-------------------------|
A|-------------------------|
E|-------------------------|


it sounds exactly like the "Song of Time" for Zelda OoT.



and also, I play the chorus like this:

e|---------------------------------------------------|
B|---------------------------------------------------|
G|------12---------12---------------9--------9--12---|
D|-7-7---x----7-7---x-----7-5--3-3--x-----2--x---x---|
A|-7-7--10----7-7--10-----7-5--3-3--7-----2--7--10---|
E|-7-7--------7-7---------7-5--3-3--------2----------|

but yours sounds right too so I guess it's a matter of preference.

0 reply
wake behind you wrote on August 15 2008, 06:01 pm

*the verse you've tabbed....


*the only suggestion I would make IS that the lead....


spell check fail.

0 reply
EKCender429 wrote on August 15 2008, 09:33 pm

Hey, thanks man

i was gonna save this for my album tab, but i just decided to submit
it earlier

I want to post or [tab]
guest
You may want to rate the tab now too:
select rating
Please do not post tabs as comments. Select "correction" instead!