Oops, an error
Loading. Please wait.

Lullaby Tab

1,370 views 1 this week
no commentswrite comment
1 2 3 4 5
accurate
x 3
Autoscroll
+/-
esc
set tempo
stop
NEW! There's an official Ultimate Guitar app which is ideal
for learning songs when you're away from computer. Get the app
WARNING: You are trying to view
                                    content from Ultimate-Guitar.com
                                    in an unauthorized application,
                                    which is prohibited.

                                    Please use an official Ultimate
                                    Guitar Tabs application for iPhone,
                                    iPad or Android to access legitimate
                                    chords, guitar, bass, and drum tabs
                                    from Ultimate-Guitar.com database.

                                    Type "ultimate guitar tabs" in Apple
                                    App Store's or Android Market's
                                    search to find the application.
Breaking Pangaea - Lullaby

Intro
e|--------0-|--------------|---2-4-0----|----------|-0--------|-----------|
B|------0---|-4-2-0--------|5--------0h2|-0--------|---4-2-0--|-----------|
G|----------|-------2-1-2-4|------------|----------|----------|-2-1-2-4---|
D|----2-----|--------------|------------|----2-----|----------|-----------|
A|----------|-0------------|------------|----------|---0------|-----------|
E|-4--------|---------4----|------------|-4--------|----------|---4-------|

e|---2-4-0-----|-----------|-0--------|---------|0---------|-------|
B|-5-------0h2-|-0---------|---4-2-0--|---------|--4-2--0h2|-0-----|
G|-------------|-----------|----------|2-4------|------4---|-------|
D|-------------|---2-------|----------|----2----|----------|---2---|
A|-------------|-----------|---0------|---------|--0-------|-------|
E|-------------|-4---------|----------|--4------|----------|-4-----|

e|-0--------|-----------|---2-4-0---|--0-0-0------|
B|---4-2-0--|-----------|-5---------|-4-4-4-------|
G|----------|-2-1-2-4---|-----------|-------------|
D|----------|-----------|-----------|-------------|
A|---0------|-----------|-----------|-------------|
E|----------|---4-------|-----------|-------------|

Verse
e|----------|-----------|----------|---------|
B|----------|-----------|----------|---------|
G|-----4----|-----4-----|-----4----|-----4---|
D|---2---2--|---2---2---|---2---2--|---4---4-|
A|----------|-0---------|-4--------|-2-------|
E|-4--------|-----------|----------|---------|

e|----------|-----------|----------|---------|
B|----------|-----------|----------|-----4---|
G|-----4----|-----4-----|-----4----|-----4---|
D|---2---2--|---2---2---|---2---2--|---4---4-|
A|----------|-0---------|-4--------|-2-------|
E|-4--------|-----------|----------|---------|

e|----------|-----------|----------|---------|
B|----------|-----------|----------|---------|
G|-----4----|-----4-----|-----4----|-----4---|
D|---2---2--|---2---2---|---2---2--|---4---4-|
A|----------|-0---------|-4--------|-2-------|
E|-4--------|-----------|----------|---------|

e|----------|-----------|----------|---------|
B|----------|-----------|----------|-----4---|
G|-----4----|-----4-----|-----4----|-----4---|
D|---2---2--|---2---2---|---2---2--|---4---4-|
A|----------|-0---------|-4--------|-2-------|
E|-4--------|-----------|----------|---------|

e|-0--0-0----0-0--0-0--0-0-|-4-4-4-4-4-4--2--2-2-2-|
B|-2--2-2h4--4/9--9-9--9-9-|-5-5-5-5-5-5--4--4-4-4-|
G|-2--2-2h4--4/9--9-9--9-9-|-6-6-6-6-6-6--4--4-4-4-|
D|-2--2-2----2/7--7-7--7-7-|-6-6-6-6-6-6--4--4-4-4-|
A|-0--0-0----0-0--0-0--0-0-|-4-4-4-4-4-4--4--2-2-2-|
E|-0--0-0----0-0--0-0--0-0-|-4-4-4-4-4-4--2--2-2-2-|

e|-0--0-0---0-0-0-0--0-0--0-0-|-4-4-4-4-4-4--7-7-7-7-7-7-7-|-0-----------|
B|-2--2-2h4-2-2-4/9--9-9--9-9-|-5-5-5-5-5-5--7-7-7-7-7-7-7-|-9-----------|
G|-2--2-2h4-2-2-4/9--9-9--9-9-|-6-6-6-6-6-6--8-8-8-8-8-8-8-|-9-----------|
D|-2--2-2---2-2-2/7--7-7--7-7-|-6-6-6-6-6-6--9-9-9-9-9-9-9-|-7-----------|
A|-0--0-0---0-0-0-0--0-0--0-0-|-4-4-4-4-4-4--9-9-9-9-9-9-9-|-0-----------|
E|-0--0-0---0-0-0-0--0-0--0-0-|-4-4-4-4-4-4--7-7-7-7-7-7-7-|-0-----------|

Verse 2
e|--------0-0-0-|---------0-0-0-|--------0-0-0-|--------0-0-0-|
B|--------0-0-0-|---------0-0-0-|--------0-0-0-|--------0-0-0-|
G|--------4-4-4-|---------4-4-4-|--------4-4-4-|--------4-4-4-|
D|--------2-2-2-|---------2-2-2-|--------2-2-2-|--------4-4-4-|
A|--------x-x-x-|-0-0--0--0-0-0-|-4-4--4-4-4-4-|-2-2--2-2-2-2-|
E|-4-4--4-4-4-4-|-x-x--x--x-x-x-|--------------|--------------|
   x x  x         x x  x          x x  x         x x  x

e|--------0-0-0-|---------0-0-0-|--------0-0-0-|--------0-0-0-|
B|--------0-0-0-|---------0-0-0-|--------0-0-0-|--------0-0-0-|
G|--------4-4-4-|---------4-4-4-|--------4-4-4-|--------4-4-4-|
D|--------2-2-2-|---------2-2-2-|--------2-2-2-|--------4-4-4-|
A|--------x-x-x-|-0-0--0--0-0-0-|-4-4--4-4-4-4-|-2-2--2-2-2-2-|
E|-4-4--4-4-4-4-|-x-x--x--x-x-x-|--------------|--------------|
   x x  x         x x  x          x x  x         x x  x

e|--------0-0-0-|---------0-0-0-|--------0-0-0-|--------0-0-0-|
B|--------0-0-0-|---------0-0-0-|--------0-0-0-|--------0-0-0-|
G|--------4-4-4-|---------4-4-4-|--------4-4-4-|--------4-4-4-|
D|--------2-2-2-|---------2-2-2-|--------2-2-2-|--------4-4-4-|
A|--------x-x-x-|-0-0--0--0-0-0-|-4-4--4-4-4-4-|-2-2--2-2-2-2-|
E|-4-4--4-4-4-4-|-x-x--x--x-x-x-|--------------|--------------|
   x x  x         x x  x          x x  x         x x  x

e|--------0-0-0-|---------0-0-0-|--------0-0-0-|-0-0-0-0-0-0-0-|
B|--------0-0-0-|---------0-0-0-|--------0-0-0-|-0-0-0-0-0-0-0-|
G|--------4-4-4-|---------4-4-4-|--------4-4-4-|-4-4-4-4-4-4-4-|
D|--------2-2-2-|---------2-2-2-|--------2-2-2-|-4-4-4-4-4-4-4-|
A|--------x-x-x-|-0-0--0--0-0-0-|-4-4--4-4-4-4-|-2-2-2-2-2-2-2-|
E|-4-4--4-4-4-4-|-x-x--x--x-x-x-|--------------|---------------|
   x x  x         x x  x          x x  x         x x x 

Chorus
e|-0--0-0---0-0-0-0--0-0--0-0-|-4-4-4-4-4-4--7--7-7-7-7-7-7-|
B|-2--2-2h4-2-2-4/9--9-9--9-9-|-5-5-5-5-5-5--7--7-7-7-7-7-7-|
G|-2--2-2h4-2-2-4/9--9-9--9-9-|-6-6-6-6-6-6--8--8-8-8-8-8-8-|
D|-2--2-2---2-2-2/7--7-7--7-7-|-6-6-6-6-6-6--9--9-9-9-9-9-9-|
A|-0--0-0---0-0-0-0--0-0--0-0-|-4-4-4-4-4-4--9--9-9-9-9-9-9-|
E|-0--0-0---0-0-0-0--0-0--0-0-|-4-4-4-4-4-4--7--7-7-7-7-7-7-|

e|-0--0-0---0-0-0-0--0-0--0-0-|-4-4-4-4-4-4--7--7-7-7-7-7-7-|
B|-2--2-2h4-2-2-4/9--9-9--9-9-|-5-5-5-5-5-5--7--7-7-7-7-7-7-|
G|-2--2-2h4-2-2-4/9--9-9--9-9-|-6-6-6-6-6-6--8--8-8-8-8-8-8-|
D|-2--2-2---2-2-2/7--7-7--7-7-|-6-6-6-6-6-6--9--9-9-9-9-9-9-|
A|-0--0-0---0-0-0-0--0-0--0-0-|-4-4-4-4-4-4--9--9-9-9-9-9-9-|
E|-0--0-0---0-0-0-0--0-0--0-0-|-4-4-4-4-4-4--7--7-7-7-7-7-7-|

e|-0--0-0---0-0-0-0--0-0--0-0-|-4-4-4-4-4-4--2--2-2-2-2-2-2-|
B|-2--2-2h4-2-2-4/9--9-9--9-9-|-5-5-5-5-5-5--4--4-4-4-4-4-4-|
G|-2--2-2h4-2-2-4/9--9-9--9-9-|-6-6-6-6-6-6--4--4-4-4-4-4-4-|
D|-2--2-2---2-2-2/7--7-7--7-7-|-6-6-6-6-6-6--4--4-4-4-4-4-4-|
A|-0--0-0---0-0-0-0--0-0--0-0-|-4-4-4-4-4-4--2--2-2-2-2-2-2-|
E|-0--0-0---0-0-0-0--0-0--0-0-|-4-4-4-4-4-4--2--2-2-2-2-2-2-|

e|-0--0-0---0-0-0-0--0-0--0-0-|-4-4-4-4-4-4--7--7-7-7-7-7-7-|
B|-2--2-2h4-2-2-4/9--9-9--9-9-|-5-5-5-5-5-5--7--7-7-7-7-7-7-|
G|-2--2-2h4-2-2-4/9--9-9--9-9-|-6-6-6-6-6-6--8--8-8-8-8-8-8-|
D|-2--2-2---2-2-2/7--7-7--7-7-|-6-6-6-6-6-6--9--9-9-9-9-9-9-|
A|-0--0-0---0-0-0-0--0-0--0-0-|-4-4-4-4-4-4--9--9-9-9-9-9-9-|
E|-0--0-0---0-0-0-0--0-0--0-0-|-4-4-4-4-4-4--7--7-7-7-7-7-7-|

Bridge
e|-0-----0-----0-----0-0-0-0-0-0-0-0-0-0-0-0-|
B|-4~------4-----4---4-4-4-4-4-4-4-4-4-4-4-4-|
G|-4~--------4-----4-4-4-4-4-4-4-4-4-4-4-4-4-|
D|-2~----------------2-2-2-2-2-2-2-2-2-2-2-2-|
A|-0-----------------0-0-0-0-0-0-0-0-0-0-0-0-|
E|-0-----------------0-0-0-0-0-0-0-0-0-0-0-0-|

e|--------0-0-0-|--------0-0-0-|--------0-0-0-|--------0-0-0-|
B|--------0-0-0-|--------0-0-0-|--------0-0-0-|--------0-0-0-|
G|--------4-4-4-|--------4-4-4-|--------4-4-4-|--------4-4-4-|
D|--------2-2-2-|--------2-2-2-|--------2-2-2-|--------4-4-4-|
A|--------x-x-x-|-0-0--0-0-0-0-|-4-4--4-4-4-4-|-2-2--2-2-2-2-|
E|-4-4--4-4-4-4-|--------------|--------------|--------------|

e|--------0-0-0-|--------0-0-0-|--------0-0-0-|-0-0-0-0-0-0-0-0-|
B|--------0-0-0-|--------0-0-0-|--------0-0-0-|-0-0-0-0-0-0-0-0-|
G|--------4-4-4-|--------4-4-4-|--------4-4-4-|-4-4-4-4-4-4-4-4-|
D|--------2-2-2-|--------2-2-2-|--------2-2-2-|-4-4-4-4-4-4-4-4-|
A|--------x-x-x-|-0-0--0-0-0-0-|-4-4--4-4-4-4-|-2-2-2-2-2-2-2-2-|
E|-4-4--4-4-4-4-|--------------|--------------|-----------------|
                                     
e|-------0--0-0-|--------0-0-0-|--------0-0-0-|--------0-0-0-|
B|-------0--0-0-|--------0-0-0-|--------0-0-0-|--------0-0-0-|
G|-------4--4-4-|--------4-4-4-|--------4-4-4-|--------4-4-4-|
D|-------2--2-2-|--------2-2-2-|--------2-2-2-|--------4-4-4-|
A|-------x--x-x-|-0-0--0-0-0-0-|-4-4--4-4-4-4-|-2-2--2-2-2-2-|
E|-4-4---4--4-4-|--------------|--------------|--------------|


e|--------0-0-0-|--------0-0-0-|--------0-0-0-|-0-0-0-0-0-0-0-0-|
B|--------0-0-0-|--------0-0-0-|--------0-0-0-|-0-0-0-0-0-0-0-0-|
G|--------4-4-4-|--------4-4-4-|--------4-4-4-|-4-4-4-4-4-4-4-4-|
D|--------2-2-2-|--------2-2-2-|--------2-2-2-|-4-4-4-4-4-4-4-4-|
A|--------x-x-x-|-0-0--0-0-0-0-|-4-4--4-4-4-4-|-2-2-2-2-2-2-2-2-|
E|-4-4--4-4-4-4-|--------------|--------------|-----------------|
                                 
Chorus
e|-0--0-0---0-0-0-0--0-0--0-0-|-4-4-4-4-4-4--2--2-2-2-2-2-2-|
B|-2--2-2h4-2-2-4/9--9-9--9-9-|-5-5-5-5-5-5--4--4-4-4-4-4-4-|
G|-2--2-2h4-2-2-4/9--9-9--9-9-|-6-6-6-6-6-6--4--4-4-4-4-4-4-|
D|-2--2-2---2-2-2/7--7-7--7-7-|-6-6-6-6-6-6--4--4-4-4-4-4-4-|
A|-0--0-0---0-0-0-0--0-0--0-0-|-4-4-4-4-4-4--2--2-2-2-2-2-2-|
E|-0--0-0---0-0-0-0--0-0--0-0-|-4-4-4-4-4-4--2--2-2-2-2-2-2-|

e|-0--0-0---0-0-0-0--0-0--0-0-|-4-4-4-4-4-4--7--7-7-7-7-7-7-|
B|-2--2-2h4-2-2-4/9--9-9--9-9-|-5-5-5-5-5-5--7--7-7-7-7-7-7-|
G|-2--2-2h4-2-2-4/9--9-9--9-9-|-6-6-6-6-6-6--8--8-8-8-8-8-8-|
D|-2--2-2---2-2-2/7--7-7--7-7-|-6-6-6-6-6-6--9--9-9-9-9-9-9-|
A|-0--0-0---0-0-0-0--0-0--0-0-|-4-4-4-4-4-4--9--9-9-9-9-9-9-|
E|-0--0-0---0-0-0-0--0-0--0-0-|-4-4-4-4-4-4--7--7-7-7-7-7-7-|

e|-0--0-0---0-0-0-0--0-0--0-0-|-4-4-4-4-4-4--2--2-2-2-2-2-2-|
B|-2--2-2h4-2-2-4/9--9-9--9-9-|-5-5-5-5-5-5--4--4-4-4-4-4-4-|
G|-2--2-2h4-2-2-4/9--9-9--9-9-|-6-6-6-6-6-6--4--4-4-4-4-4-4-|
D|-2--2-2---2-2-2/7--7-7--7-7-|-6-6-6-6-6-6--4--4-4-4-4-4-4-|
A|-0--0-0---0-0-0-0--0-0--0-0-|-4-4-4-4-4-4--2--2-2-2-2-2-2-|
E|-0--0-0---0-0-0-0--0-0--0-0-|-4-4-4-4-4-4--2--2-2-2-2-2-2-|

e|-0--0-0---0-0-0-0--0-0--0-0-|-4-4-4-4-4-4--7--7-7-7-7-7-7-|
B|-2--2-2h4-2-2-4/9--9-9--9-9-|-5-5-5-5-5-5--7--7-7-7-7-7-7-|
G|-2--2-2h4-2-2-4/9--9-9--9-9-|-6-6-6-6-6-6--8--8-8-8-8-8-8-|
D|-2--2-2---2-2-2/7--7-7--7-7-|-6-6-6-6-6-6--9--9-9-9-9-9-9-|
A|-0--0-0---0-0-0-0--0-0--0-0-|-4-4-4-4-4-4--9--9-9-9-9-9-9-|
E|-0--0-0---0-0-0-0--0-0--0-0-|-4-4-4-4-4-4--7--7-7-7-7-7-7-|

Outro
e|--------0-|--------------|---2-4-0----|
B|------0---|-4-2-0--------|5--------0h2|
G|----------|-------2-1-2-4|------------|
D|----2-----|--------------|------------|
A|----------|-0------------|------------|
E|-4--------|---------4----|------------|

e|--------|0--------------|---2-4-0----|-0-----|
B|0-------|--4-2-0--------|5--------0h2|-0-----|
G|--------|--------2-1-2-4|------------|-1-----|
D|--2-----|---------------|------------|-2-----|
A|--------|-0-------------|------------|-2-----|
E|4-------|----------4----|------------|-0-----|









any questions: natty_tbs@hotmail.com
comments
We did not receive enough feedback on this tab! Please rate:
print report bad tab
1 2 3 4 5
I want to post or [tab]
guest
You may want to rate the tab now too:
select rating
Please do not post tabs as comments. Select "correction" instead!