Oops, an error
Loading. Please wait.

Conviction Tab

5,009 views 3 this week
6 commentsread comments
1 2 3 4 5
excellent!
x 6
Autoscroll
+/-
esc
set tempo
stop
Contributor
Difficulty
Tuning
intermediate
C G C F A D
WARNING: You are trying to view
                                    content from Ultimate-Guitar.com
                                    in an unauthorized application,
                                    which is prohibited.

                                    Please use an official Ultimate
                                    Guitar Tabs application for iPhone,
                                    iPad or Android to access legitimate
                                    chords, guitar, bass, and drum tabs
                                    from Ultimate-Guitar.com database.

                                    Type "ultimate guitar tabs" in Apple
                                    App Store's or Android Market's
                                    search to find the application.
-----------------------------------------------------------------

Conviction - The Crimson Armada

-----------------------------------------------------------------

Tabbed by: Trevor Winchenbaugh
Email:belowcreationlg@aim.com
Tuning: Drop C

D|---------------------------------------------------------------|
A|---------------------------------------------------------------|
F|---------------------------------------------------------------|
C|---------------------------------------------------------------|
G|---------------------------------------------------------------|
C|-3b5-0---0-0-0-0-0--0--0-0-0------0-0-0-0--0---3b5-0-0-1-1-1-1-|

D|---------------------------------------------------------------|
A|---------------------------------------------------------------|
F|---------------------------------------------------------------|
C|---------------------------------------------------------------|
G|---------------------------------------------------------------|
C|-3b5-0---0-0-0-0-0--0--0-0-0------0-0-0-0--0---3b5-0-0-1-1-1-1-|

D|---------------------------------------------------------------|
A|---------------------------------------------------------------|
F|---------------------------------------------------------------|
C|---------------------------------------------------------------|
G|------------------------------------------------4*-------------|
C|-3b5-0---0-0-0-0-0--0--10b12-0------0-0-0-0--0------0-0-1-1-1-1|

D|---------------------------------------------------------------|
A|---------------------------------------------------------------|
F|---------------------------------------------------------------|
C|---------------------------------------------------------------|
G|---------------------------------------------------------------|
C|-3b5-0---0-0-0-0-0--0--0-0-0------*drums*------3b5-0-0-1-1-1-1-|

D|---------------------------------------------------------------|
A|---------------------------------------------------------------|
F|---------------------------------------------------------------|
C|-0-------------------------------------------------------------|
G|-0-let ring----------------------------------------------------|
C|-0-------------------------------------------------------------|





D|---------------------------------------------------------------|
A|---------------------------------------------------------------|
F|---------------------~~~~~~~~~~~~~--------------3--5-----------|
C|-3------6p5-------pm1-1-1-1-1-1-1-3------6p5---------6-5-3-----|
G|-3------------6---pm1-1-1-1-1-1-1-3----------6------------6-3-1|
C|-3--3-3-----3-----pm1-1-1-1-1-1-1-3--3-3-----------------------|

D|---------------------------------------------------------------|
A|---------------------------------------------------------------|
F|---------------------~~~~~~~~~~~~~--------------3--5-----------|
C|-3------6p5-------pm1-1-1-1-1-1-1-3------6p5---------6-5-3-----|
G|-3------------6---pm1-1-1-1-1-1-1-3----------6------------6-3-1|
C|-3--3-3-----3-----pm1-1-1-1-1-1-1-3--3-3-----------------------|

D|---------------------------------------------------------------|
A|---------------------------------------------------------------|
F|---------------------~~~~~~~~~~~~~--------------3--5-----------|
C|-3------6p5-------pm1-1-1-1-1-1-1-3------6p5---------6-5-3-----|
G|-3------------6---pm1-1-1-1-1-1-1-3----------6------------6-3-1|
C|-3--3-3-----3-----pm1-1-1-1-1-1-1-3--3-3-----------------------|

D|---------------------------------------------------------------|
A|---------------------------------------------------------------|
F|---------------------~~~~~~~~~~~~~--------------3--5-----------|
C|-3------6p5-------pm1-1-1-1-1-1-1-3------6p5---------6-5-3-----|
G|-3------------6---pm1-1-1-1-1-1-1-3----------6------------6-3-1|
C|-3--3-3-----3-----pm1-1-1-1-1-1-1-3--3-3-----------------------|

D|---------------------------------------------------------------|
A|---------------------------------------------------------------|
F|---------------------~~~~~~~~~~~~~--------------3--5-----------|
C|-3------6p5-------pm1-1-1-1-1-1-1-3------6p5---------6-5-3-----|
G|-3------------6---pm1-1-1-1-1-1-1-3----------6------------6-3-1|
C|-3--3-3-----3-----pm1-1-1-1-1-1-1-3--3-3-----------------------|

D|---------------------------------------------------------------|
A|---------------------------------------------------------------|
F|---------------------~~~~~~~~~~~~~--------------3--5-----------|
C|-3------6p5-------pm1-1-1-1-1-1-1-3------6p5---------6-5-3-----|
G|-3------------6---pm1-1-1-1-1-1-1-3----------6------------6-3-1|
C|-3--3-3-----3-----pm1-1-1-1-1-1-1-3--3-3-----------------------|


D|---------------------------------------------------------------|
A|---------------------------------------------------------------|
F|---------------------------------------------------------------|
C|-3---3------3---1---1-----1---3---3-----3---1---1-----1--------|
G|-3---3------3---1---1-----1---3---3-----3---1---1-----1--------|
C|-3---3------3---1---1-----1---3---3-----3---1---1-----1--------|

D|---------------------------------------------------------------|
A|---------------------------------------------------------------|
F|--3/5-5-5-5-5-8p7----8p7-7---------3---3---3---7---7---5---5---|
C|------------------8---------8--5-5---5---5---5---5---5---5-----|
G|---------------------------------------------------------------|
C|---------------------------------------------------------------|

D|---------------------------------------------------------------|
A|---------------------------------------------------------------|
F|--3/5-5-5-5-5-8p7----8p7-7---------7---7---7---10---10---8---8-|
C|------------------8---------8--8-8---8---8---8----8----8---8---|
G|---------------------------------------------------------------|
C|---------------------------------------------------------------|

D|---------------------------------------------------------------|
A|---------------------------------------------------------------|
F|--3/5-5-5-5-5-8p7----8p7-7---------3---3---3---7---7---5---5---|
C|------------------8---------8--5-5---5---5---5---5---5---5-----|
G|---------------------------------------------------------------|
C|---------------------------------------------------------------|

D|-------------------------------------|
A|----------------------------8/11-----|
F|--3/5-5-5-5-5-8p7----8p7-7-----------|
C|------------------8------------------|
G|-------------------------------------|
C|-------------------------------------|

D|---------------------------------------------------------------|
A|-------11----11----11----13----13----13/15---------------------|
F|-12-12----12----12----12----12----12---------------------------|
C|---------------------------------------------------------------|
G|---------------------------------------------------------------|
C|---------------------------------------------------------------|

D|---------------------------------------------------------------|
A|---------------------------------------------------------------|
F|---------------------------------------------------------------|
C|---------------------------------------------------------------|
G|---------------------------------------------------------------|
C|-000-000-000-000-000-----000-000-000---3h5p0-3--5--------------|

D|---------------------------------------------------------------|
A|---------------------------------------------------------------|
F|---------------------------------------------------------------|
C|---------------------------------------------------------------|
G|---------------------------------------------------------------|
C|-000-000-000-000-000-----000-000-000---------------------------|

D|---------------------------------------------------------------|
A|---------------------------------------------------------------|
F|---------------------------------------------------------------|
C|---------------------------------------------------------------|
G|---------------------------------------------------------------|
C|-000-000-000-000-000-----000-000-000---3h5p0-3--5--------------|

D|---------------------------------------------------------------|
A|---------------------------------------------------------------|
F|---------------------------------------------------------------|
C|---------------------------------------------------------------|
G|---------------------------------------------------------------|
C|-000-000-000-000-000-----000-000-000---------------------------|

D|---------------------------------------------------------------|
A|---------------------------------------------------------------|
F|---------------------------------------------------------------|
C|---------------------------------------------------------------|
G|---------------------------------------------------------------|
C|-3b5-0---0-0-0-0-0--0--0-0-0------0-0-0-0--0---3b5-0-0-1-1-1-1-|

D|---------------------------------------------------------------|
A|---------------------------------------------------------------|
F|---------------------------------------------------------------|
C|---------------------------------------------------------------|
G|---------------------------------------------------------------|
C|-3b5-0---0-0-0-0-0--0--0-0-0------0-0-0-0--0---3b5-0-0-1-1-1-1-|

D|---------------------------------------------------------------|
A|---------------------------------------------------------------|
F|---------------------------------------------------------------|
C|---------------------------------------------------------------|
G|-----------------------------------------------6*--------------|
C|-10b12-0-----0-0-0-0--0--12b15-0---0-0-0-0--0-----0-0-b5*(8)---|
        Pinch+Bend on 5 so it’s at 8, and bend back down to 5^^^

D|---------------------------------------------------------------|
A|---------------------------------------------------------------|
F|---------------------------------------------------------------|
C|---------------------------------------------------------------|
G|---------------------------------------------------------------|
C|-3b5-0----0-0-0-0--0--10b12-0--0-0-0-0--0----------------------|

D|---------------------------------------------------------------|
A|---------------------------------------------------------------|
F|--3/5-5-5-5-5-8p7----8p7-7---------3---3---3---7---7---5---5---|
C|------------------8---------8--5-5---5---5---5---5---5---5-----|
G|---------------------------------------------------------------|
C|---------------------------------------------------------------|

D|---------------------------------------------------------------|
A|---------------------------------------------------------------|
F|--3/5-5-5-5-5-8p7----8p7-7---------7---7---7---10---10---8---8-|
C|------------------8---------8--8-8---8---8---8----8----8---8---|
G|---------------------------------------------------------------|
C|---------------------------------------------------------------|

D|---------------------------------------------------------------|
A|---------------------------------------------------------------|
F|--3/5-5-5-5-5-8p7----8p7-7---------3---3---3---7---7---5---5---|
C|------------------8---------8--5-5---5---5---5---5---5---5-----|
G|---------------------------------------------------------------|
C|---------------------------------------------------------------|

D|-------------------------------------|
A|----------------------------8/11-----|
F|--3/5-5-5-5-5-8p7----8p7-7-----------|
C|------------------8------------------|
G|-------------------------------------|
C|-------------------------------------|

D|---------------------------------------------------------------|
A|-------11----11----11----13----13----13/15---------------------|
F|-12-12----12----12----12----12----12---------------------------|
C|---------------------------------------------------------------|
G|---------------------------------------------------------------|
C|---------------------------------------------------------------|

D|---------------------------------------------------------------|
A|---------------------------------------------------------------|
F|-10-----10---10---10-----10---10---10--------------------------|
C|----6-6----6----6----6-6----6----6----6------------------------|
G|---------------------------------------------------------------|
C|---------------------------------------------------------------|

D|---------------------------------------------------------------|
A|---------------------------------------------------------------|
F|-8-----8---8---8-----8---8---8---------------------------------|
C|---8-8---8---8---8-8---8---8---8-------------------------------|
G|---------------------------------------------------------------|
C|---------------------------------------------------------------|

D|---------------------------------------------------------------|
A|---------------------------------------------------------------|
F|-5-----5---5---5-----5---5---5---------------------------------|
C|---6-6---6---6---6-6---6---6---6-------------------------------|
G|---------------------------------------------------------------|
C|---------------------------------------------------------------|
D|---------------------------------------------------------------|
A|---------------------------------------------------------------|
F|-3-----3---3---3-----3---3-5-3---------------------------------|
C|---1-1---1---1---1-1---1-------6-------------------------------|
G|---------------------------------------------------------------|
C|---------------------------------------------------------------|

D|---------------------------------------------------------------|
A|---------------------------------------------------------------|
F|-10-----10---10---10-----10---10---10--------------------------|
C|----6-6----6----6----6-6----6----6----6------------------------|
G|---------------------------------------------------------------|
C|---------------------------------------------------------------|

D|---------------------------------------------------------------|
A|---------------------------------------------------------------|
F|-8-----8---8---8-----8---8---8---------------------------------|
C|---8-8---8---8---8-8---8---8---8-------------------------------|
G|---------------------------------------------------------------|
C|---------------------------------------------------------------|

D|---------------------------------------------------------------|
A|---------------------------------------------------------------|
F|-5-----5---5---5-----5---5---5---------------------------------|
C|---6-6---6---6---6-6---6---6---6-------------------------------|
G|---------------------------------------------------------------|
C|---------------------------------------------------------------|
D|---------------------------------------------------------------|
A|---------------------------------------------------------------|
F|-3-----3---3---3-----3---3-5-3---------------------------------|
C|---1-1---1---1---1-1---1-------6-------------------------------|
G|---------------------------------------------------------------|
C|---------------------------------------------------------------|

D|---------------------------------------------------------------|
A|---------------------------------------------------------------|
F|---------------------~~~~~~~~~~~~~--------------3--5-----------|
C|-3------6p5-------pm1-1-1-1-1-1-1-3------6p5---------6-5-3-----|
G|-3------------6---pm1-1-1-1-1-1-1-3----------6------------6-3-1|
C|-3--3-3-----3-----pm1-1-1-1-1-1-1-3--3-3-----------------------|

D|---------------------------------------------------------------|
A|---------------------------------------------------------------|
F|---------------------~~~~~~~~~~~~~--------------3--5-----------|
C|-3------6p5-------pm1-1-1-1-1-1-1-3------6p5---------6-5-3-----|
G|-3------------6---pm1-1-1-1-1-1-1-3----------6------------6-3-1|
C|-3--3-3-----3-----pm1-1-1-1-1-1-1-3--3-3-----------------------|

D|---------------------------------------------------------------|
A|---------------------------------------------------------------|
F|---------------------~~~~~~~~~~~~~--------------3--5-----------|
C|-3------6p5-------pm1-1-1-1-1-1-1-3------6p5---------6-5-3-----|
G|-3------------6---pm1-1-1-1-1-1-1-3----------6------------6-3-1|
C|-3--3-3-----3-----pm1-1-1-1-1-1-1-3--3-3-----------------------|

D|---------------------------------------------------------------|
A|---------------------------------------------------------------|
F|---------------------~~~~~~~~~~~~~--------------3--5-----------|
C|-3------6p5-------pm1-1-1-1-1-1-1-3------6p5---------6-5-3-----|
G|-3------------6---pm1-1-1-1-1-1-1-3----------6------------6-3-1|
C|-3--3-3-----3-----pm1-1-1-1-1-1-1-3--3-3-----------------------|

D|---------------------------------------------------------------|
A|---------------------------------------------------------------|
F|---------------------------------------------------------------|
C|---------------------------------------------------------------|
G|---------------------------------------------------------------|
C|-000-000-000-000-000-------------------------------------------|

D|---------------------------------------------------------------|
A|---------------------------------------------------------------|
F|---------------------------------------------------------------|
C|---------------------------------------------------------------|
G|---------------------------------------------------------------|
C|-000-000-000-000-000-----000-000-000---3h5p0-3--5--------------|

D|---------------------------------------------------------------|
A|---------------------------------------------------------------|
F|---------------------------------------------------------------|
C|---------------------------------------------------------------|
G|---------------------------------------------------------------|
C|-000-000-000-000-000-----000-000-000---------------------------|
D|---------------------------------------------------------------|
A|---------------------------------------------------------------|
F|---------------------------------------------------------------|
C|---------------------------------------------------------------|
G|---------------------------------------------------------------|
C|-000-000-000-000-000-----000-000-000---3h5p0-3--5--------------|

D|---------------------------------------------------------------|
A|---------------------------------------------------------------|
F|---------------------------------------------------------------|
C|---------------------------------------------------------------|
G|---------------------------------------------------------------|
C|-000-000-000-000-000-----000-000-000---------------------------|



| /  slide up
| \  slide down
| h  hammer-on
| p  pull-off
| ~  vibrato
| +  harmonic
| x  Mute note
6 comments total. Showing first comments.
+1 reply
jjkkllmmnn wrote on July 25 2011, 10:20 pm

this is in drop b.... not drop c

0 reply
belowcreationlg wrote on November 22 2011, 11:06 pm

No, it's definitely in drop C...

0 reply
luiswearsprada wrote on December 12 2011, 01:25 pm

it's drop b.. saud says it in a interview, the whole album is drop b..

I want to post or [tab]
guest
You may want to rate the tab now too:
select rating
Please do not post tabs as comments. Select "correction" instead!