Oops, an error
Loading. Please wait.

In The Eyes Of God Tab

ver2
ver2

Whole song

More versions @911Tabs.com
552 views 1 this week
no commentswrite comment
1 2 3 4 5
please rate
Autoscroll
+/-
esc
set tempo
stop
Contributor
Difficulty
Tuning
intermediate
B F# B E G# C#
WARNING: You are trying to view
                                    content from Ultimate-Guitar.com
                                    in an unauthorized application,
                                    which is prohibited.

                                    Please use an official Ultimate
                                    Guitar Tabs application for iPhone,
                                    iPad or Android to access legitimate
                                    chords, guitar, bass, and drum tabs
                                    from Ultimate-Guitar.com database.

                                    Type "ultimate guitar tabs" in Apple
                                    App Store's or Android Market's
                                    search to find the application.
    Guitars I, II 
C#||--------------------------------------------------||
G#||--------------------------------------------------|| 
E ||--------------------------------------------------||   
B ||--------------------------------------------------|| x4
F#||-0--1--5550--1--5555555550--1--5550--1--555444444-||    
B ||-0--1-----0--1-----------0--1-----0--1------------|| 
     .  .     .  .           .  .     .  .              

    Guitar I
C#||--------------------------------------------------|
G#||--------------------------------------------------|
E ||--------------------------------------------------|
B ||--------------------------------------------------|
F#||-444777555000555777888888444777555000555777888777-|
B ||--------------------------------------------------|
  ||
  ||Guitar II
C#||--------------------------------------------------|
G#||--------------------------------------------------|
E ||--------------------------------------------------|
B ||--------------------------------------------------|
F#||-------------------------------------5--7--8--7---|
B ||-000---000---000---000---000---000---5--7--8--7---|
     ...   ...   ...   ...   ...   ...

   Guitar I
C#|--------------------------------------------------|
G#|--------------------------------------------------|
E |--------------------------------------------------|
B |--------------------------------------------------|
F#|-4447775550005557778888884447775550000--1--0------|
B |-------------------------------------0--1--0--5---|
  |                                     .  .  .  p.h.(low)
  |Guitar II
C#|--------------------------------------------------|
G#|--------------------------------------------------|
E |--------------------------------------------------|
B |--------------------------------------------------|
F#|-------------------------------------0--1--0------|
B |-000---000---000---000---000---000---0--1--0--5---|
    ...   ...   ...   ...   ...   ...   .  .  .  p.h.(high)
      
   Guitar I
C#|------------------------------------------------------------------------|
G#|------------------------------------------------------------------------|
E |------------------------------------------------------------------------|
B |------------------------------------------------------------------------|
F#|777101010888000888101010121212121212777101010888000888101010121212101010|
B |------------------------------------------------------------------------|
  |
  |Guitar II
C#|------------------------------------------------------------------------|
G#|------------------------------------------------------------------------|
E |------------------------------------------------------------------------|
B |------------------------------------------------------------------------|
F#|---------------------------------------------------8--10----12----10----|
B |000------000---000------000---------000------000---8--10----12----10----|
   ...      ...   ...      ...         ...      ...    

   Guitar I
C#|----------------------------------------------------------------||
G#|----------------------------------------------------------------||
E |----------------------------------------------------------------||
B |----------------------------------------------------------------||
F#|-7771010108880008881010101212121212127771010108880001--4--5--4--||
B |----------------------------------------------------1--4--5--4--||
  |
  |Guitar II
C#|----------------------------------------------------------------||
G#|----------------------------------------------------------------||
E |----------------------------------------------------------------||
B |----------------------------------------------------------------||
F#|----------------------------------------------------8--10-12-10-||
B |-000------000---000------000---------000------000---8--10-12-10-||
    ...      ...   ...      ...         ...      ...    

    Guitars I, II
C#||-------------------------------------------------||
G#||-------------------------------------------------||
E ||-------------------------------------------------||
B ||-------------------------------------------------|| x2
F#||-------------------------------------------------||
B ||-0-0--0-0--0-0-0-0--0-0--000--000--000--00-------||
     . .  . .  . . . .  . .  ...  ...  ...  ..

    Guitar I
C#||--------------------------------------------------|
G#||--------------------------------------------------|
E ||--------------------------------------------------|
B ||--------------------------------------------------|
F#||--------------------------------------------------|
B ||-85058505858505850505850585850585-----------------|
  ||
  ||Guitar II
C#||--------------------------------------------------|
G#||--------------------------------------------------|
E ||--------------------------------------------------|
B ||--------------------------------------------------|
F#||--------------------------------------------------|
B ||-0-0--0-0--0-0-0-0--0-0--000--000--000--00--------|
     . .  . .  . . . .  . .  ...  ...  ...  ..

   Guitar I
C#|--------------------------------------------------|
G#|--------------------------------------------------|
E |--------------------------------------------------|
B |--------------------------------------------------|
F#|--------------------------------------------------|
B |-74047404747404740404740474740474-----------------|
  |
  |Guitar II
C#|--------------------------------------------------|
G#|--------------------------------------------------|
E |--------------------------------------------------|
B |--------------------------------------------------|
F#|--------------------------------------------------|
B |-0-0--0-0--0-0-0-0--0-0--000--000--000--00--------|
    . .  . .  . . . .  . .  ...  ...  ...  ..

   Guitar I
C#|--------------------------------------------------|
G#|--------------------------------------------------|
E |--------------------------------------------------|
B |--------------------------------------------------|
F#|--------------------------------------------------|
B |-0-0--0-0--0-0-0-0--0-0--000--000--000--00--------|
  | . .  . .  . . . .  . .  ...  ...  ...  ..
  |Guitar II
C#|--------------------------------------------------|
G#|--------------------------------------------------|
E |--------------------------------------------------|
B |--------------------------------------------------|
F#|-85058505858505850505850585850585-----------------|
B |--------------------------------------------------|

   Guitar I
C#|--------------------------------------------------||
G#|--------------------------------------------------||
E |--------------------------------------------------||
B |--------------------------------------------------||
F#|--------------------------------------------------||
B |-0-0--0-0--0-0-0-0--0-0--000--000--000------------||
  | . .  . .  . . . .  . .  ...  ...  ...
  |Guitar II
C#|--------------------------------------------------||
G#|--------------------------------------------------||
E |--------------------------------------------------||
B |--------------------------------------------------||
F#|-74047404747404740404740474740474-----------------||
B |--------------------------------------------------||

    Guitars I, II
C#||--------------------------------------------------|
G#||--------------------------------------------------|
E ||--------------------------------------------------|
B ||--------------------------------------------------|
F#||--------------------------------------------------|
B ||-0-0--0-0--0-0-0-0--000--0--0-0--0-0-0-0-0-0-0-0--|
     . .  . .  . . . .  ...  .  . .  . . . . . . . .   

   Guitars I, II
C#|--------------------------------------------------||
G#|--------------------------------------------------||
E |--------------------------------------------------||
B |--------------------------------------------------||
F#|--------------------------------------------------||
B |-0-0--0-0--0-0-0-0--000---------------------------||
    . .  . .  . . . .  ...  

    Guitars I, II
C#||--------------------------------------------------|
G#||--------------------------------------------------|
E ||--------------------------------------------------|
B ||--------------------------------------------------|
F#||-------5-----------5-----8p5---------7p4----------|
B ||-0-5-8---7-4-0-5-8---7-4-----0-8p5-0-----0-7p4-0--|
     . . .       . . .           .     .     .     .

   Guitars I, II
C#|--------------------------------------------------|
G#|--------------------------------------------------|
E |--------------------------------------------------|
B |--------------------------------------------------|
F#|-------5-----------5-----7p4---7p4---------7p4----|
B |-0-5-8---7-4-0-5-8---7-4-----0-----0-7p4-0-----0--|
    . . .       . . .           .     .     .     .

   Guitars I, II
C#|--------------------------------------------------|
G#|--------------------------------------------------|
E |--------------------------------------------------|
B |--------------------------------------------------|
F#|-------5-----------5-----8p5---------7p4----------|
B |-0-5-8---7-4-0-5-8---7-4-----0-8p5-0-----0-7p4-0--|
    . . .       . . .           .     .     .     .

   Guitars I, II
C#|--------------------------------------------------||
G#|--------------------------------------------------||
E |--------------------------------------------------||
B |--------------------------------------------------|| x3
F#|-------5-----------5-----8-8-8-5-5-5-4-4-4-5-5-5--||
B |-0-5-8---7-4-0-5-8---7-4--------------------------||
    . . .       . . .   

    Guitars I, II
C#||-------------------------------------------------|
G#||-------------------------------------------------|
E ||-------------------------------------------------|
B ||-------------------------------------------------|
F#||-----------5-5-5-8-8-8------------7-7-7-10-10-10-|
B ||-000--000---------------000--000-----------------|
     ...  ...               ...  ...

   Guitars I, II
C#|--------------------------------------------------------------|
G#|--------------------------------------------------------------|
E |--------------------------------------------------------------|
B |--------------------------------------------------------------|
F#|-----------8-8-8-12-12-12-13-13-13-13-13-13-10-10-10-10-10-10-|
B |-000--000-----------------------------------------------------|
    ...  ...

   Guitars I, II
C#|-------------------------------------------------|
G#|-------------------------------------------------|
E |-------------------------------------------------|
B |-------------------------------------------------|
F#|-----------5-5-5-8-8-8------------7-7-7-10-10-10-|
B |-000--000---------------000--000-----------------|
    ...  ...               ...  ...

   Guitars I, II
C#|--------------------------------------------------------||
G#|--------------------------------------------------------||
E |--------------------------------------------------------||
B |--------------------------------------------------------||
F#|-----------8-8-8-12-12-12-10-10-10-10-10-10-7-7-7-7-7-7-||
B |-000--000-----------------------------------------------||
    ...  ...

    Guitar I
C#||-------------------------------------------------|
G#||-------------------------------------------------|
E ||-------------------------------------------------|
B ||-------------------------------------------------|
F#||-----------5-5-5-8-8-8------------7-7-7-10-10-10-|
B ||-000--000---------------000--000-----------------|
  || ...  ...               ...  ...
  ||Guitar II
C#||-------------------------------------------------------|
G#||-------------------------------------------------------|
E ||-------------------------------------------------------|
B ||-------------------------------------------------------|
F#||-----------8-8-8-12-12-12------------10-10-10-13-13-13-|
B ||-000--000------------------000--000--------------------|
     ...  ...                  ...  ...

   Guitar I
C#|--------------------------------------------------------------|
G#|--------------------------------------------------------------|
E |--------------------------------------------------------------|
B |--------------------------------------------------------------|
F#|-----------8-8-8-12-12-12-13-13-13-13-13-13-10-10-10-10-10-10-|
B |-000--000-----------------------------------------------------|
  | ...  ...
  |Guitar II
C#|-----------------------------------------------------------------|
G#|-----------------------------------------------------------------|
E |-----------------------------------------------------------------|
B |-----------------------------------------------------------------|
F#|-----------12-12-12-15-15-15-17-17-17-17-17-17-13-13-13-13-13-13-|
B |-000--000--------------------------------------------------------|
    ...  ...

   Guitar I
C#|-------------------------------------------------|
G#|-------------------------------------------------|
E |-------------------------------------------------|
B |-------------------------------------------------|
F#|-----------5-5-5-8-8-8------------7-7-7-10-10-10-|
B |-000--000---------------000--000-----------------|
  | ...  ...               ...  ...
  |Guitar II
C#|-------------------------------------------------------|
G#|-------------------------------------------------------|
E |-------------------------------------------------------|
B |-------------------------------------------------------|
F#|-----------8-8-8-12-12-12------------10-10-10-13-13-13-|
B |-000--000------------------000--000--------------------|
    ...  ...                  ...  ...

   Guitar I
C#|--------------------------------------------------------||
G#|--------------------------------------------------------||
E |--------------------------------------------------------||
B |--------------------------------------------------------||
F#|-----------8-8-8-12-12-12-10-10-10-10-10-10-7-7-7-7-7-7-||
B |-000--000-----------------------------------------------||
  | ...  ...
  |Guitar II
C#|-----------------------------------------------------------------||
G#|-----------------------------------------------------------------||
E |-----------------------------------------------------------------||
B |-----------------------------------------------------------------||
F#|-----------12-12-12-15-15-15-13-13-13-13-13-13-10-10-10-10-10-10-||
B |-000--000--------------------------------------------------------||
    ...  ...

    Guitars I, II
C#||---------------------------------------------------------------|
G#||---------------------------------------------------------------|
E ||---------------------------------------------------------------|
B ||-5-------------7---------------8---------------7---------------|
F#||-5---5---5h8p5-7----7---7h10p7-8----8---8h12p8-7----7---7h10p7-|
B ||-5-5---5-------7--7---7--------8--8---8--------7--7---7--------|
       .   .          .   .           .   .           .   .

   Guitars I, II
C#|-------------------------------------------------------------||  
G#|-------------------------------------------------------------||
E |-------------------------------------------------------------||
B |-5--------------4--------------5--------------4--------------|| x4
F#|-5----5---5h8p5-4----4---4h7p4-5----5---5h8p5-4----4---4h7p4-||
B |-5--5---5-------4--4---4-------5--5---5-------4--4---4-------||
       .   .          .   .          .   .          .   .

    Guitars I, II
C#||------------------------------------------------------------------||
G#||------------------------------------------------------------------||
E ||------------------------------------------------------------------||
B ||------------------------------------------------------------------||
F#||------------------------------------------------------------------||
B ||-850585058585058505058505858505857404740474740474040474047\-------||
                                                  (push whammy bar down)
    Guitars I, II
C#||------------------------------------------------------------------||
G#||------------------------------------------------------------------||
E ||------------------------------------------------------------------||
B ||------------------------------------------------------------------||
F#||------------------------------------------------------------------||
B ||-8505850585850585050585058585058574047404747404740404740474740474-||

    Guitar I
C#||------------------------------------------------------------------||
G#||------------------------------------------------------------------||
E ||------------------------------------------------------------------||
B ||------------------------------------------------------------------||
F#||------------------------------------------------------------------||
B ||-8505850585850585050585058585058574047404747404740404740474740474-||
  ||
  ||Guitar II                                                            x2
C#||------------------------------------------------------------------||
G#||------------------------------------------------------------------||
E ||------------------------------------------------------------------||
B ||------------------------------------------------------------------||
F#||-8505850585850585050585058585058574047404747404740404740474740474-||
B ||------------------------------------------------------------------||

    Guitars I, II
C#||--------------------------------------------------|
G#||--------------------------------------------------|
E ||--------------------------------------------------|
B ||--------------------------------------------------|
F#||--------------------------------------------------|
B ||-850585058585058----0--0-0-0--0-0-0--0-0-0--------|
                        .  . . .  . . .  . . .

   Guitars I, II
C#|--------------------------------------------------|
G#|--------------------------------------------------|
E |--------------------------------------------------|
B |--------------------------------------------------|
F#|--------------------------------------------------|
B |-740474047474047----0--0-0-0--0-0-0--0-0-0--------|
                       .  . . .  . . .  . . .

   Guitars I, II
C#|--------------------------------------------------|
G#|--------------------------------------------------|
E |--------------------------------------------------|
B |--------------------------------------------------|
F#|-850585058585058----------------------------------|
B |--------------------0--0-0-0--0-0-0--0-0-0--------|
                       .  . . .  . . .  . . .

   Guitars I, II
C#|--------------------------------------------------||
G#|--------------------------------------------------||
E |--------------------------------------------------||
B |--------------------------------------------------||
F#|-740474047474047----------------------------------||
B |--------------------0--0-0-0--0-0-0--0-0-0--------||
                       .  . . .  . . .  . . .

    Guitars I, II
C#||--------------------------------------------------||
G#||--------------------------------------------------||
E ||--------------------------------------------------||
B ||--------------------------------------------------|| x3
F#||--------------------------------------------------||
B ||-0-0--0-0--0-0-0-0--0-0--0--0-0--0-0-0--0-0-0-----||
     . .  . .  . . . .  . .  .  . .  . . .  . . .

    Guitars I, II
C#||--------------------------------------------------||
G#||--------------------------------------------------||
E ||--------------------------------------------------||
B ||--------------------------------------------------||
F#||--------------------------------------------------||
B ||-0-0--0-0--0-0-0-0--0-0---------------------------||
     . .  . .  . . . .  . .

    Guitars I, II
C#||--------------------------------------------------||
G#||--------------------------------------------------||
E ||--------------------------------------------------||
B ||--------------------------------------------------|| x4
F#||-0--1--4~-0--1-----------1--4~-0--1---------------||
B ||-0--1-----0--1--3~-------1-----0--1--3~~~~~~------||
     .  .     .  .           .     .  .
   
    Guitars I, II
C#||--------------------------------------------------||
G#||--------------------------------------------------||
E ||--------------------------------------------------||
B ||--------------------------------------------------|| x2
F#||-44775500557788884477550055778877-----------------||
B ||--------------------------------------------------||

    Guitar I
C#||--------------------------------------------------||
G#||--------------------------------------------------||
E ||--------------------------------------------------||
B ||--------------------------------------------------||
F#||-771010880088101012121212771010880088101012121010-||
B ||--------------------------------------------------||
  ||
  ||Guitar II                                            x2
C#||--------------------------------------------------||
G#||--------------------------------------------------||
E ||--------------------------------------------------||
B ||--------------------------------------------------||
F#||-44775500557788884477550055778877-----------------||
B ||--------------------------------------------------||

    Guitar I
C#||---------------------------------------------------||
G#||---------------------------------------------------||
E ||---------------------------------------------------||
B ||---------------------------------------------------||
F#||-44775500557788884477550055778877------------------||
B ||---------------------------------------------------||
  ||
  ||Guitar II                                             x2
C#||---------------------------------------------------||
G#||---------------------------------------------------||
E ||---------------------------------------------------||
B ||---------------------------------------------------||
F#||-771010880088101012121212771010880088101012121010--||
B ||---------------------------------------------------||

    Guitars I, II
C#||--------------------------------------------------||
G#||--------------------------------------------------||
E ||--------------------------------------------------||
B ||--------------------------------------------------||
F#||--------------------------------------------------||
B ||-0-0--0-0--0-0-0-0--0-0---------------------------||
     . .  . .  . . . .  . .
comments
We did not receive enough feedback on this tab! Please rate:
print report bad tab
1 2 3 4 5
I want to post or [tab]
guest
You may want to rate the tab now too:
select rating
Please do not post tabs as comments. Select "correction" instead!