Oops, an error
Loading. Please wait.

Revelations Tab

ver1
ver1

Whole song

Interactive

More versions @911Tabs.com
10,815 views 12 this week
1 commentread comment
1 2 3 4 5
excellent!
x 4
Autoscroll
+/-
esc
set tempo
stop
Contributor
Difficulty
Tuning
intermediate
C G C F A D
Hey! There's an official Ultimate Guitar app which is ideal
for learning songs when you're away from computer. Get the app
WARNING: You are trying to view
                                    content from Ultimate-Guitar.com
                                    in an unauthorized application,
                                    which is prohibited.

                                    Please use an official Ultimate
                                    Guitar Tabs application for iPhone,
                                    iPad or Android to access legitimate
                                    chords, guitar, bass, and drum tabs
                                    from Ultimate-Guitar.com database.

                                    Type "ultimate guitar tabs" in Apple
                                    App Store's or Android Market's
                                    search to find the application.
-------------------------------------------------------------------------------
                             Revelations - The Crimson Armada
-------------------------------------------------------------------------------
Tabbed by: Trevor Winchenbaugh
Email: Belowcreationlg@aim.com

Tuning: CGCFAD

(After the Intro part)

e|-----------------------------------------12-17p12--------------------------|
B|--------------------------------------15----------15-----------------------|
G|-----------------------------------14----------------14--------------------|
D|--------------------------------15----------------------15-----------------|
A|--------------------------12h17----------------------------17--------------|
E|-0-0-0-0-0-0---000-0-0-0---------------------------------------------------|
  
e|---------------------------------------------------------------------------|
B|---------------------------------------------------------------------------|
G|---------------------------------------------------------------------------|
D|---------------------------------------------------------------------------|
A|--------------------------5555555888877777744444---------------------------|
E|-000---000---000-0-0-0-0---------------------------------------------------|

e|---------------------------------------------------------------------------|
B|---------------------------------------------------------------------------|
G|---------------------------------------------------------------------------|
D|---------------------------------------------------------------------------|
A|--------------------------t12p8-x6---t10p7-x6------------------------------|
E|-0-0-0-0-0-0---000-0-0-0---------------------------------------------------|

e|---------------------------------------------------------------------------|
B|---------------------------------------------------------------------------|
G|---------------------------------------------------------------------------|
D|---------------------------------------------------------------------------|
A|---------------------------------------------------------------------------|
E|-000---000---000-0-0-0-0-0-------------------------------------------------|

e|---------------------------------------------------------------------------|
B|---------------------------------------------------------------------------|
G|---------------------------------------------------------------------------|
D|-0----------0------------------0------------0------------------------------|
A|-0----------0------------------0------------0----8-8-7-7-5-5-4-4-----------|
E|-0--0-0-0-0-0---888777555444---0----0-0-0-0-0------------------------------|

e|---------------------------------------------------------------------------|
B|---------------------------------------------------------------------------|
G|---------------------------------------------------------------------------|
D|-0----------0--------------------------------------------------------------|
A|-0----------0------------------8-8-7-7-5-5-4-4-5-5-7-7-8-8-7-7-------------|
E|-0--0-0-0-0-0--888777555444------------------------------------------------|

e|---------------------------------------------------------------------------|
B|---------------------------------------------------------------------------|
G|---------------------------------------------------------------------------|
D|-0----------0------------------0------------0------------------------------|
A|-0----------0------------------0------------0----8-8-7-7-5-5-4-4-----------|
E|-0--0-0-0-0-0---888777555444---0----0-0-0-0-0------------------------------|

e|---------------------------------------------------------------------------|
B|---------------------------------------------------------------------------|
G|---------------------------------------------------------------------------|
D|-0----------0--------------------------------------------------------------|
A|-0----------0------------------8-8-7-7-5-5-4-4-5-5-7-7-8-8-7>let ring------|
E|-0--0-0-0-0-0---888777555444-----------------------------------------------|

e|---------------------------------------------------------------------------|
B|---------------------------------------------------------------------------|
G|---------------------------------------------------------------------------|
D|---------------------------------------------------------------------------|
A|-------8p5p0-7p4p0-8p5p0-10p7p0-8p5p0-7p4p0-8p5p0--------------------------|
E|-0-0-0---------------------------------------------------------------------|

e|---------------------------------------------------------------------------|
B|---------------------------------------------------------------------------|
G|---------------------------------------------------------------------------|
D|---------------------------------------------------------------------------|
A|-------8p5p0-7p4p0-8p5p0-10p7p0-12p8p0-10p7p0-8p5p0------------------------|
E|-0-0-0---------------------------------------------------------------------|

e|---------------------------------------------------------------------------|
B|---------------------------------------------------------------------------|
G|---------------------------------------------------------------------------|
D|---------------------------------------------------------------------------|
A|-------8p5p0-7p4p0-8p5p0-10p7p0-8p5p0-7p4p0-8p5p0--------------------------|
E|-0-0-0---------------------------------------------------------------------|

e|---------------------------------------------------------------------------|
B|---------------------------------------------------------------------------|
G|---------------------------------------------------------------------------|
D|---------------------------------------------------------------------------|
A|-------8p5p0-7p4p0-8p5p0-10p7p0-12p8p0-10p7p0-8p5p0------------------------|
E|-0-0-0---------------------------------------------------------------------|

e|---------------------------------------------------------------------------|
B|---------------------------------------------------------------------------|
G|---------------------------------------------------------------------------|
D|---------------------------------------------------------------------------|
A|-------8p5p0-7p4p0-8p5p0-10p7p0-8p5p0-7p4p0-8p5p0--------------------------|
E|-0-0-0---------------------------------------------------------------------|

e|---------------------------------------------------------------------------|
B|---------------------------------------------------------------------------|
G|---------------------------------------------------------------------------|
D|---------------------------------------------------------------------------|
A|-------8p5p0-7p4p0-8p5p0-10p7p0-12p8p0-10p7p0-8p5p0------------------------|
E|-0-0-0---------------------------------------------------------------------|


e|---------------------------------------------------------------------------|
B|---------------------------------------------------------------------------|
G|---------------------------------------------------------------------------|
D|---------------------------------------------------------------------------|
A|-------------8p5p0-7p4p0--------------8p5p0-10p7p0-------------------------|
E|-0-0-0-0-0-0--------------0-0-0-0-0-0--------------------------------------|

e|---------------------------------------------------------------------------|
B|---------------------------------------------------------------------------|
G|---------------------------------------------------------------------------|
D|---------------------------------------------------------------------------|
A|-------------8p5p0-7p4p0-12p8p0-10p7p0-8p5p0-7p4p0-------------------------|
E|-0-0-0-0-0-0---------------------------------------------------------------|

e|---------------------------------------------------------------------------|
B|---------------------------------------------------------------------------|
G|---------------------------------------------------------------------------|
D|---------------------------------------------------------------------------|
A|-------------8p5p0-7p4p0--------------8p5p0-10p7p0-------------------------|
E|-0-0-0-0-0-0--------------0-0-0-0-0-0--------------------------------------|

e|---------------------------------------------------------------------------|
B|---------------------------------------------------------------------------|
G|---------------------------------------------------------------------------|
D|---------------------------------------------------------------------------|
A|-------------8p5p0-7p4p0-12p8p0-10p7p0-8p5p0-7p4p0-------------------------|
E|-0-0-0-0-0-0---------------------------------------------------------------|

e|---------------------------------------------------------------------------|
B|---------------------------------------------------------------------------|
G|---------------------------------------------------------------------------|
D|-0-----------------------10-----8------------------------------------------|
A|-0-----7h8p7-5--7h8p7----10-----8---7-7-7----------------------------------|
E|-0--------------------8--10-----8---7-7-7----------------------------------|

e|---------------------------------------------------------------------------|
B|---------------------------------------------------------------------------|
G|---------------------------------------------------------------------------|
D|-0-----------------------10-----8------------------------------------------|
A|-0-----7h8p7-5--7h8p7----10-----8---7-7-7----------------------------------|
E|-0--------------------8--10-----8---7-7-7----------------------------------|

e|---------------------------------------------------------------------------|
B|---------------------------------------------------------------------------|
G|---------------------------------------------------------------------------|
D|-0-----------------------10-----8------------------------------------------|
A|-0-----7h8p7-5--7h8p7----10-----8---7-7-7----------------------------------|
E|-0--------------------8--10-----8---7-7-7----------------------------------|

e|---------------------------------------------------------------------------|
B|---------------------------------------------------------------------------|
G|---------------------------------------------------------------------------|
D|-0-----------------------10-----8------------------------------------------|
A|-0-----7h8p7-5--7h8p7----10-----8---7-7-7----------------------------------|
E|-0--------------------8--10-----8---7-7-7----------------------------------|

e|---------------------------------------------------------------------------|
B|---------------------------------------------------------------------------|
G|---------------------------------------------------------------------------|
D|---------------------------------------------------------------------------|
A|-----7p5-7p5-----8p7-8p7-----7p5-----7p5-7p5-----8-7-----------------------|
E|-0-0---------0-0---------0-0-----0-0---------0-0-----8-7-------------------|



e|---------------------------------------------------------------------------|
B|---------------------------------------------------------------------------|
G|---------------------------------------------------------------------------|
D|---------------------------------------------------------------------------|
A|-----7p5-7p5-----8p7-8p7-----7p5-----7p5-7p5-----8-7-----------------------|
E|-0-0---------0-0---------0-0-----0-0---------0-0-----8-7-------------------|

e|---------------------------------------------------------------------------|
B|---------------------------------------------------------------------------|
G|---------------------------------------------------------------------------|
D|---------------------------------------------------------------------------|
A|-----12p10-12p10-----13p12-13p12-----12p10-----12p10-12p10-----13-12-------|
E|-0-0-------------0-0-------------0-0-------0-0-------------0-0-------13-12-|

e|---------------------------------------------------------------------------|
B|---------------------------------------------------------------------------|
G|---------------------------------------------------------------------------|
D|---------------------------------------------------------------------------|
A|-----12p10-12p10-----13p12-13p12-----12p10-----12p10-12p10-----13-12-------|
E|-0-0-------------0-0-------------0-0-------0-0-------------0-0-------13-12-|

e|---------------------------------------------------------------------------|
B|---------------------------------------------------------------------------|
G|---------------------------------------------------------------------------|
D|-10----8---7---0----------0------------------------------------------------|
A|-10----8---7---0----------0------------------------------------------------|
E|-10----8---7---0--0-0-0-0-0--888777555444----------------------------------|

e|---------------------------------------------------------------------------|
B|---------------------------------------------------------------------------|
G|---------------------------------------------------------------------------|
D|-0----------0------------------0----------0--------------------------------|
A|-0----------0--8-8-7-7-5-5-4-4-0----------0---------------8877554455778877-|
E|-0--0-0-0-0-0------------------0--0-0-0-0-0--888777555444------------------|


e|---------------------------------------------------------------------------|
B|---------------------------------------------------------------------------|
G|---------------------------------------------------------------------------|
D|-0----------0----------------0----------0----------------------------------|
A|-0----------0----------------0----------0--8-8-7-7-5-5-4-4-----------------|
E|-0--0-0-0-0-0--888777555444--0--0-0-0-0-0----------------------------------|

e|---------------------------------------------------------------------------|
B|---------------------------------------------------------------------------|
G|---------------------------------------------------------------------------|
D|-0----------0--------------------------------------------------------------|
A|-0----------0---------------8-8-7-7-5-5-4-4-5-5-7-7-8-8-7-7----------------|
E|-0--0-0-0-0-0--888777555444------------------------------------------------|

e|---------------------------------------------------------------------------|
B|---------------------------------------------------------------------------|
G|---------------------------------------------------------------------------|
D|-0----------0--------------------------------------------------------------|
A|-0----------0---------------0-0--------------------------------------------|
E|-0--0-0-0-0-0--888777555444-0-0--------------------------------------------|


e|---------------------------------------------------------------------------|
B|---------------------------------------------------------------------------|
G|---------------------------------------------------------------------------|
D|---------------------------------------------------------------------------|
A|-0-0-0-0-0-0-0-0-----------------------------------------------------------|
E|-0-0-0-0-0-0-0-0-----------------------------------------------------------|

e|---------------------------------------------------------------------------|
B|---------------------------------------------------------------------------|
G|---------------------------------------------------------------------------|
D|---------------------------------------------------------------------------|
A|-0-0-----------------------------------------0-0-0-0-0-0-0-0---------------|
E|-0-0-----------------------------------------0-0-0-0-0-0-0-0---------------|

e|---------------------------------------------------------------------------|
B|---------------------------------------------------------------------------|
G|---------------------------------------------------------------------------|
D|---------------------------------------------------------------------------|
A|-0-0-----------------------------------------0-0-0-0-0-0-0-0---------------|
E|-0-0-----------------------------------------0-0-0-0-0-0-0-0---------------|


e|---------------------------------------------------------------------------|
B|---------------------------------------------------------------------------|
G|---------------------------------------------------------------------------|
D|---------------------------------------------------------------------------|
A|-0-0-----------------------------------------0-0-0-0-0-0-0-0---------------|
E|-0-0-----------------------------------------0-0-0-0-0-0-0-0---------------|

e|---------------------------------------------------------------------------|
B|---------------------------------------------------------------------------|
G|---------------------------------------------------------------------------|
D|---------------------------------------------------------------------------|
A|-000-0-0-0-0-0-0-000-0-0-0-00000000----------000-0-0-0---0-----------------|
E|-000-0-0-0-0-0-0-000-0-0-0-00000000----------000-0-0-0---0-----------------|

e|---------------------------------------------------------------------------|
B|---------------------------------------------------------------------------|
G|---------------------------------------------------------------------------|
D|---------------------------------------------------------------------------|
A|-000-0-0-0-0-0-0-000-0-0-0-00000000----------000-0-0-0---0-----------------|
E|-000-0-0-0-0-0-0-000-0-0-0-00000000----------000-0-0-0---0-----------------|


************************************

| /   slide up
| \   slide down
| h   hammer-on
| p   pull-off
| ~   vibrato
| +   harmonic
| x   Mute note
| b   Bend
| pb  Pre-bend
| br  Bend release
| pbr Pre-bend release
| brb Bend release bend

************************************
comments
print report bad tab
1 comment total.
0 reply
CarnifexDeath wrote on October 25 2010, 11:05 pm

Perfect. 100% accurate.

I want to post or [tab]
guest
You may want to rate the tab now too:
select rating
Please do not post tabs as comments. Select "correction" instead!