Oops, an error
Loading. Please wait.

The Serpents Tongue Tab

18,427 views 9 this week
4 commentsread comments
1 2 3 4 5
accurate
x 6
Autoscroll
+/-
esc
set tempo
stop
Contributor
Difficulty
Tuning
intermediate
C G C F A D
WARNING: You are trying to view
                                    content from Ultimate-Guitar.com
                                    in an unauthorized application,
                                    which is prohibited.

                                    Please use an official Ultimate
                                    Guitar Tabs application for iPhone,
                                    iPad or Android to access legitimate
                                    chords, guitar, bass, and drum tabs
                                    from Ultimate-Guitar.com database.

                                    Type "ultimate guitar tabs" in Apple
                                    App Store's or Android Market's
                                    search to find the application.
-------------------------------------------------------------------------------
                             SERPENT TONGUE - THE CRIMSON ARMADA
-------------------------------------------------------------------------------
Tabbed by:jamesh
Email:jamesalberthaas@aol.com

Tuning:Drop C   c g c f a d


0:00

d|--------------------------------------------------------------------------------|
a|--------------------------------------------------------------------------------|
f|--------------------------------------------------------------------------------|
C|--------------------------------------------------------------------------------|
G|-----------8-----5-----4-----4h5p4-----------8-----4h5p4-1h4p1-1h4p1------------|
C|-0-0-5-0-0---0-0---0-0---0-0-------0-0-5-0-0---0-0-------------------2h5p2------|
   * *   * *   * *   * *   * *       * *   * *   * *

d|--------------------------------------------------------------------------------|
a|--------------------------------------------------------------------------------|
f|--------------------------------------------------------------------------------|
C|---------------------------------------------------10---------------------------|
G|-----------8-----5-----4-----4h5p4-----------8--------9---9---------------------|
C|-0-0-5-0-0---0-0---0-0---0-0-------0-0-5-0-0---0-0------10--10-7-10-7-----------|
   * *   * *   * *   * *   * *       * *   * *   * *
d|--------------------------------------------------------------------------------|
a|--------------------------------------------------------------------------------|
f|--------------------------------------------------------------------------------|
C|--------------------------------------------------------------------------------|
G|-----------8-----5-----4-----4h5p4-----------8-----4h5p4-1h4p1-1h4p1------------|
C|-0-0-5-0-0---0-0---0-0---0-0-------0-0-5-0-0---0-0-------------------2h5p2------|
   * *   * *   * *   * *   * *       * *   * *   * *
d|--------------------------------------------------------------------------------|
a|--------------------------------------------------------------------------------|
f|--------------------------------------------------------------------------------|
C|---------------------------------------------------10---------------------------|
G|-----------8-----5-----4-----4h5p4-----------8--------9---9---------------------|
C|-0-0-5-0-0---0-0---0-0---0-0-------0-0-5-0-0---0-0------10--10-7h10-7-----------|
   * *   * *   * *   * *   * *       * *   * *   * *
d|--------------------------------------------------------------------------------|
a|--------------------------------------------------------------------------------|
f|--------------------------------------------------------------------------------|
C|-10-----------------10-----------------12------------------12-------------------|
G|----9---9--------------9---9--------------11---11-------------11---11-----------|
C|------10--10-7h10-7------10--10-7h10-7-------12--12-9h12-9-------12--12-9h12-9--|

d|--------------------------------------------------------------------------------|
a|--------------------------------------------------------------------------------|
f|--------------------------------------------------------------------------------|
C|-10-----------------10-----------------12------------------12-------------------|
G|----9---9--------------9---9--------------11---11-------------11---11-----------|
C|------10--10-7h10-7------10--10-7h10-7-------12--12-9h12-9-------12--12-9h12-9--|

d|---------------------------------------------|
a|---------------------------------------------|
f|---------------------------------------------|
C|-10----------------------------------0~~~----|
G|----9---9----------------------------0~~~----|
C|------10--10-7h10-7-10-7-4h7-4-1h4-1-0~~~----|

0:30

d|--------------------------------------------------------------------------------|
a|--------------------------------------------------------------------------------|
f|--------------------------------------------------------------------------------|
C|--------------------------------------------------------------------------------|
G|-----5---4---5---7---5---4---4/5-----5---4---5---7---8---7---5\4----------------|
C|-8-8---8---8---8---8---8---8-----8-8---8---8---8---8---8---8--------------------|
   * *   *   *   *   *   *   *     * *   *   *   *   *   *   *
d|----------------------------------------------|
a|----------------------------------------------|
f|----------------------------------------------|
C|-----3-2----2-0----0/0-----7-----7-----5------|
G|-----5-4----4-1----1/3-----8-----8-----7------|
C|-0-0-----0-0----0-0----0-0---0-0---0-0--------|
   * *     * *    * *    * *   * *   * *
1:10

d|--------------------------------------------------------------------------------|
a|--------------------------------------------------------------------------------|
f|--------------------------------------------------------------------------------|
C|--------------------------------------------------------------------------------|
G|--------------------------------------------------------------------------------|
C|-8-8-8-8-8-8-8-8-8-8-8-8h7-7-7-7h8-8-8-8-8-8-8-10-10-10-10-10-10-10-------------|
     * * * * * * * * * *     * *     * * * * * *    *  *     *  *
d|--------------------------------------------------------------------------------|
a|--------------------------------------------------------------------------------|
f|--------------------------------------------------------------------------------|
C|--------------------------------------------------------------------------------|
G|--------------------------------------------------------------------------------|
C|-0-0-0-0-0-0-0-0-0-0-0-0-0-0-0-3-3-3-3-3-3-3--8h7-5p0-7p0-3h5-------------------|
     * * * * * * *   * *     * *   * * * * * *

d|--------------------------------------------------------------------------------|
a|--------------------------------------------------------------------------------|
f|--------------------------------------------------------------------------------|
C|--------------------------------------------------------------------------------|
G|--------------------------------------------------------------------------------|
C|-8-8-8-8-8-8-8-8-8-8-8-8h7-7-7-7h8-8-8-8-8-8-8-10-10-10-10-10-10-10-------------|
     * * * * * * * * * *     * *     * * * * * *    *  *     *  *
d|--------------------------------------------------------------------------------|
a|--------------------------------------------------------------------------------|
f|--------------------------------------------------------------------------------|
C|--------------------------------------------------------------------------------|
G|--------------------------------------------------------------------------------|
C|-0-0-0-0-0-0-0-0-0-0-0-0-0-0-0-3-3-3-3-3-3-3--8h7-5p0-7p0-3h5-------------------|

d|-----|
a|-----|
f|-----|
C|-0~--|
G|-0~--|
C|-0~--|

then breakdown

2:09

d|-----------------------------------------------------------------|
a|-----------------------------------------------------------------|
f|-----------------------------------------------------------------|
C|-----------------------------------------------------------------|
G|---------5h8---4h7---7h10---5h7---------5h8---4h7---7h10---5h7---|
C|-000-0-0-----0-----0------0-----000-0-0-----0-----0------0-------|
   *** * *     *     *      *     *** * *     *     *      *
d|-------------------------------------------------------------------|
a|-------------------------------------------------------------------|
f|-------------------------------------------------------------------|
C|-----------------------5h8------------------------------5h8--------|
G|---------8h12---7h10---------8h12---------8h12---7h10---------8h12-|
C|-888-8-8------8------8-----8------888-8-8------8------8-----8------|
   *** * *      *      *     *      *** * *      *      *     *

d|-----------------------------------------------------------------|
a|-----------------------------------------------------------------|
f|-----------------------------------------------------------------|
C|-----------------------------------------------------------------|
G|---------5h8---4h7---7h10---5h7---------5h8---4h7---7h10---5h7---|
C|-000-0-0-----0-----0------0-----000-0-0-----0-----0------0-------|
   *** * *     *     *      *     *** * *     *     *      *

d|-------------------------------------------------------------------|
a|-------------------------------------------------------------------|
f|-------------------------------------------------------------------|
C|-----------------------5h8------------------------------5h8--------|
G|---------8h12---7h10---------8h12---------8h12---7h10---------8h12-|
C|-888-8-8------8------8-----8------888-8-8------8------8-----8------|
   *** * *      *      *     *      *** * *      *      *     *

d|-----------------------------------------------------------------|
a|-----------------------------------------------------------------|
f|-----------------------------------------------------------------|
C|-----------------------------------------------------------------|
G|---------5h8---4h7---7h10---5h7---------5h8---4h7---7h10---5h7---|
C|-000-0-0-----0-----0------0-----000-0-0-----0-----0------0-------|
   *** * *     *     *      *     *** * *     *     *      *

d|--------------------------------------------------------------------------------|
a|--------------------------------------------------------------------------------|
f|--------------------------------------------------------------------------------|
C|-----------------------5h8------------------------------5h8---------------------|
G|---------8h12---7h10---------8h12---------8h12---7h10---------8h12--------------|
C|-888-8-8------8------8-----8------888-8-8------8------8-----8------8-8-8-8------|
   *** * *      *      *     *      *** * *      *      *     *      * * * *

d|-----------------------------------------------------------------|
a|-----------------------------------------------------------------|
f|-----------------------------------------------------------------|
C|-----------------------------------------------------------------|
G|---------5h8---4h7---7h10---5h7---------5h8---4h7---7h10---5h7---|
C|-000-0-0-----0-----0------0-----000-0-0-----0-----0------0-------|
   *** * *     *     *      *     *** * *     *     *      *


d|--------------------------------------------------------------------------------|
a|--------------------------------------------------------------------------------|
f|--------------------------------------------------------------------------------|
C|-----------------------5h8------------------------------5h8---------------------|
G|---------8h12---7h10---------8h12---------8h12---7h10---------8h12--------------|
C|-888-8-8------8------8-----8------888-8-8------8------8-----8------8-8-8-8------|
   *** * *      *      *     *      *** * *      *      *     *      * * * *

d|-------------------------------------------------------------------|
a|-------------------------------------------------------------------|
f|-------------------------------------------------------------------|
C|-----------------------5h8------------------------------5h8--------|
G|---------8h12---7h10---------8h12---------8h12---7h10---------8h12-|
C|-888-8-8------8------8-----8------888-8-8------8------8-----8------|
   *** * *      *      *     *      *** * *      *      *     *

2:51

Tremolo picking
d|-------------------------------------------|
a|-------------------------------------------|
f|-------------------------------------------|
C|-------------------------------------------|
G|------12-8-7-8------12-8-7-8------10-7-5-7-|
C|-12-8----------12-8----------10-7----------|

d|---------------------------------------------------|
a|---------------------------------------------------|
f|---------------------------------------------------|
C|---------------------------------------------------|
G|-----4-7-5-8-----4-7-5-8-----5-8-7-10-----5-8-7-10-|
C|-4-7---------4-7---------5-8----------5-8----------|(X ??)

3:25

d|--------------------------------------------------------------------------------|
a|--------------------------------------------------------------------------------|
f|--------------------------------------------------------------------------------|
C|--------------------------------------------------------------------------------|
G|-4h5---1h4---1h4---------1h4---1h4---4h5---1h4---1h4--000-000-------------------|
C|-----0-----0-----0-2h5-0-----0-----0-----0-----0------000-000-------------------|
       *     *     *     *     *     *     *     *      *** ***

d|--------------------------------------------------------------------------------|
a|--------------------------------------------------------------------------------|
f|--------------------------------------------------------------------------------|
C|--------------------------------------------------------------------------------|
G|-4h5---1h4---1h4---------1h4---1h4---4h5---1h4---1h4----------------------------|
C|-----0-----0-----0-2h5-0-----0-----0-----0-----0--------------------------------|
       *     *     *     *     *     *     *     *

d|--------------------------------------------------------------------------------|
a|--------------------------------------------------------------------------------|
f|--------------------------------------------------------------------------------|
C|--------------------------------------------------------------------------------|
G|-4h5---1h4---1h4---------1h4---1h4---4h5---1h4---1h4--000-000-------------------|
C|-----0-----0-----0-2h5-0-----0-----0-----0-----0------000-000-------------------|
       *     *     *     *     *     *     *     *      *** ***

d|--------------------------------------------------------------------------------|
a|--------------------------------------------------------------------------------|
f|--------------------------------------------------------------------------------|
C|--------------------------------------------------------------------------------|
G|-4h5---1h4---1h4---------1h4---1h4---4h5---1h4---1h4--000-000-------------------|
C|-----0-----0-----0-2h5-0-----0-----0-----0-----0------000-000-------------------|
       *     *     *     *     *     *     *     *      *** ***

d|--------------------------------------------------------------------------------|
a|--------------------------------------------------------------------------------|
f|--------------------------------------------------------------------------------| X2
C|--------------------------------------------------------------------------------|
G|-4h5---1h4---1h4---------1h4---1h4---4h5---1h4---1h4---------1h4---1h4----------|
C|-----0-----0-----0-2h5-0-----0-----0-----0-----0-----0-2h5-0-----0--------------|
       *     *     *     *     *     *     *     *     *     *     *

3:47

d|--------------------------------------------------------------------------------|
a|--------------------------------------------------------------------------------|
f|--------------------------------------------------------------------------------| X4
C|--------------------------------------------------------------------------------|
G|-000-000-0-0-0--4h5--1h4---1h4---------1h4---1h4--------------------------------|
C|-000-000-0-0-0-----0-----0-----0-2h5-0-----0------------------------------------|
   *** *** * * *     *     *     *     *     *


4:01,breakdown

4:16, ending

d|-------------------------------------|
a|-------------------------------------|
f|-------------------------------------|
C|-------------------------------------|
G|-4h5---1h4---1h4-------1h4---1h4-0---|
C|-----0-----0-----0-2h5-----0-----0---|

| /  slide up
| \  slide down
| h  hammer-on
| p  pull-off
| ~  vibrato
| +  harmonic
| x  Mute note
===============================================================================
       *     *     *         *     *
comments
print report bad tab
4 comments total. Showing first comments.
0 reply
AB1A_guitarist1 wrote on December 26 2009, 05:36 pm

Amazing tab thank you

0 reply
timmyhardcore2 wrote on February 18 2010, 04:17 pm

Great tab dude u did a good job, u can tell u spent time on this, but u should check out my tab for the sound the flood the hour and tell me what u think. i just postd it yesterday so it should be up 2morrow, again fantastic tab!

0 reply
supernick wrote on November 2 2010, 12:59 pm

d|------------------------------------------------------|
a|------------------------------------------------------|
f|------------------------------------------------------|
C|-----3-2----2-0----0-------4/2-----7-----7-----5------|
G|-----5-4----4-1----3-------5/4-----8-----8-----7------|
C|-0-0-----0-0----0-0----0-0-----0-0---0-0---0-0--------|
* * * * * * * * * * * * * *

I want to post or [tab]
guest
You may want to rate the tab now too:
select rating
Please do not post tabs as comments. Select "correction" instead!