Oops, an error
Loading. Please wait.

The Sound The Flood The Hour Tab

ver2
ver2

Intro

Whole song

Interactive

More versions @911Tabs.com
2,686 views 6 this week
1 commentread comment
1 2 3 4 5
excellent!
x 3
Autoscroll
+/-
esc
set tempo
stop
Contributor
Difficulty
Tuning
intermediate
C G C F A D
WARNING: You are trying to view
                                    content from Ultimate-Guitar.com
                                    in an unauthorized application,
                                    which is prohibited.

                                    Please use an official Ultimate
                                    Guitar Tabs application for iPhone,
                                    iPad or Android to access legitimate
                                    chords, guitar, bass, and drum tabs
                                    from Ultimate-Guitar.com database.

                                    Type "ultimate guitar tabs" in Apple
                                    App Store's or Android Market's
                                    search to find the application.
THE SOUND, THE FLOOD, THE HOUR - The Crimson Armada

Tabbed by Jetfuel495



I'm positive that this song is 99% accurate. One part I had to guess, because it
was really tricky. But hey, it's one of the rhythm parts, don't worry about it.
You'll most likely be playing the lead anyway.


-----


This part is played from the beginning all the way through the first verse.

     PM PM
            |--3*-| |-3-|  |--3--|  |--3--| |-3-|  |--3--| |-3-|
     S  S   S  S  S S S S  S  S  S  S  S  S S S S  S  S  S S S S
D||--------------------------------------------------------------|
A||--------------------------------------------------------------|
F||--------------------------------------------------------------|
C||--------------------------------------------------------------|
G||--------12-12-12-8-8-8-------------------------10-10-10-8-8-8-|
C||--0--0-----------------10-10-10-12-12-12-8-8-8----------------|


  PM PM
         |--3--| |-3-|  |--3--|  |--3--| |-3-| |-3-| |-3-|
  S  S   S  S  S S S S  S  S  S  S  S  S S S S S S S S S S
-----------------------------------------------------------|
-----------------------------------------------------------|
-----------------------------------------------------------|
-----------------------------------------------------------|
--------12-12-12-8-8-8-------------------------7-7-7-8-8-8-|
--0--0-----------------10-10-10-12-12-12-8-8-8-------------|


  PM PM   PM     PM PM     PM     PM
  S  S  S S  S S S  S  S S S  S S S  S S
-----------------------------------------|
-----------------------------------------|
-----------------------------------------|
-----------------------------------------|
-----------------------8-5-----------5-8-|
--0--0--5-0--5-8-0--0------0--5-8-0------|


  PM PM   PM      PM PM      PM      PM
  S  S  S S  S  S S  S   S S S  S  S S  S  S
---------------------------------------------||
---------------------------------------------||
---------------------------------------------||
---------------------------------------------||
------------------------12-8------------8-12-||
--0--0--8-0--8-12-0--0-------0--8-12-0-------||



Right before the really cool riff, the guitars take turns chugging the open strings like so:

  PM PM PM PM   PM PM PM PM   PM PM PM PM   PM PM PM PM    
  |--3--|       |--3--|       |--3--|       |--3--|        
  S  S  S  S  S S  S  S  S  S S  S  S  S  S S  S  S  S  S  
----------------------------------------------------------|
----------------------------------------------------------|
----------------------------------------------------------|
----------------------------------------------------------|
--0--0--0--0----0--0--0--0----0--0--0--0----0--0--0--0----|
--0--0--0--0----0--0--0--0----0--0--0--0----0--0--0--0----|


      PM PM PM PM       PM PM PM PM   PM PM PM PM    
      |--3--|           |--3--|       |--3--|        
  S S S  S  S  S  S S S S  S  S  S  S S  S  S  S  S  
----------------------------------------------------|
----------------------------------------------------|
----------------------------------------------------|
----------------------------------------------------|
------0--0--0--0--------0--0--0--0----0--0--0--0----|
------0--0--0--0--------0--0--0--0----0--0--0--0----|

It is important to realize that the chugging is done in the following pattern:
3 triplet sixteenth notes followed by 1 regular sixteenth note.
The end result is four chugs of the open strings, played very quickly. I've
slowed the song down to ensure accuracy, and this is how it really is. Truth be
told, you could just play 3 sixteenth notes and it's so fast that no one would
know the difference.



  PM PM PM PM PM PM     PM PM PM PM PM PM      
  S  S  S  S  S  S  S S S  S  S  S  S  S  S S  
----------------------------------------------|
----------------------------------------------|
----------------------------------------------|
----------------------------------------------|
--------------------5-8-------------------5-8-|
--0--8--5--0--5--0------0--8--5--0--5--0------|


  PM PM PM PM PM PM     PM PM PM PM PM PM      
  S  S  S  S  S  S  S S S  S  S  S  S  S  S S  
----------------------------------------------|
----------------------------------------------|
----------------------------------------------|
----------------------------------------------|
--------------------4-7-------------------4-7-|
--0--7--4--0--4--0------0--7--4--0--4--0------|


  PM  PMPM PM PM PM      PM  PMPM PM PM PM       
  S   S S  S  S  S  S  S S   S S  S  S  S  S  S  
------------------------------------------------|
------------------------------------------------|
------------------------------------------------|
------------------------------------------------|
--------------------8-12-------------------8-12-|
--0--12-8--0--8--0-------0--12-8--0--8--0-------|


  PM  PMPM PM PM PM      PM  PMPM PM PM PM       
  S   S S  S  S  S  S  S S   S S  S  S  S  S  S  
------------------------------------------------|
------------------------------------------------|
------------------------------------------------|
------------------------------------------------|
--------------------7-10-------------------7-10-|
--0--10-7--0--7--0-------0--10-7--0--7--0-------|


  PM PM PM PM PM PM     PM PM PM PM PM PM      
  S  S  S  S  S  S  S S S  S  S  S  S  S  S S  
----------------------------------------------|
----------------------------------------------|
----------------------------------------------|
----------------------------------------------|
--------------------5-8-------------------5-8-|
--0--8--5--0--5--0------0--8--5--0--5--0------|


  PM PM PM PM PM PM     PM PM PM PM PM PM      
  S  S  S  S  S  S  S S S  S  S  S  S  S  S S  
----------------------------------------------|
----------------------------------------------|
----------------------------------------------|
----------------------------------------------|
--------------------4-7-------------------4-7-|
--0--7--4--0--4--0------0--7--4--0--4--0------|


  PM  PMPM PM PM PM      PM  PMPM PM PM PM       
  S   S S  S  S  S  S  S S   S S  S  S  S  S  S  
------------------------------------------------|
------------------------------------------------|
------------------------------------------------|
------------------------------------------------|
--------------------8-12-------------------8-12-|
--0--12-8--0--8--0-------0--12-8--0--8--0-------|


  PM  PMPM PM PM PM      PM  PMPM PM PM PM       
  S   S S  S  S  S  S  S S   S S  S  S  S  S  S  
------------------------------------------------|
------------------------------------------------|
------------------------------------------------|
------------------------------------------------|
--------------------7-10-------------------7-10-|
--0--10-7--0--7--0-------0--10-7--0--7--0-------|

During that riff, the right guitar plays a harmony, which is basically
the same riff arranged a different way:

  PM PM PM PM PM PM     PM  PMPM PM PM PM       
  S  S  S  S  S  S  S S S   S S  S  S  S  S  S  
-----------------------------------------------|
-----------------------------------------------|
-----------------------------------------------|
-----------------------------------------------|
--------------------5-8-------------------8-12-|
--0--8--5--0--5--0------0--12-8--0--8--0-------|


  PM  PMPM PM PM PM      PM  PMPM PM PM PM       
  S   S S  S  S  S  S  S S   S S  S  S  S  S  S  
------------------------------------------------|
------------------------------------------------|
------------------------------------------------|
------------------------------------------------|
--------------------7-10-------------------7-10-|
--0--10-7--0--7--0-------0--10-7--0--7--0-------|


  PM PM PM PM PM PM     PM PM PM PM PM PM      
  S  S  S  S  S  S  S S S  S  S  S  S  S  S S  
----------------------------------------------|
----------------------------------------------|
----------------------------------------------|
----------------------------------------------|
--------------------5-8-------------------5-8-|
--0--8--5--0--5--0------0--8--5--0--5--0------|


  PM PM PM PM PM PM     PM PM PM PM PM PM      
  S  S  S  S  S  S  S S S  S  S  S  S  S  S S  
----------------------------------------------|
----------------------------------------------|
----------------------------------------------|
----------------------------------------------|
--------------------4-7-------------------4-7-|
--0--7--4--0--4--0------0--7--4--0--4--0------|


  PM PM PM PM PM PM     PM  PMPM PM PM PM       
  S  S  S  S  S  S  S S S   S S  S  S  S  S  S  
-----------------------------------------------|
-----------------------------------------------|
-----------------------------------------------|
-----------------------------------------------|
--------------------5-8-------------------8-12-|
--0--8--5--0--5--0------0--12-8--0--8--0-------|


  PM  PMPM PM PM PM      PM  PMPM PM PM PM       
  S   S S  S  S  S  S  S S   S S  S  S  S  S  S  
------------------------------------------------|
------------------------------------------------|
------------------------------------------------|
------------------------------------------------|
--------------------7-10-------------------7-10-|
--0--10-7--0--7--0-------0--10-7--0--7--0-------|


  PM PM PM PM PM PM     PM PM PM PM PM PM      
  S  S  S  S  S  S  S S S  S  S  S  S  S  S S  
----------------------------------------------|
----------------------------------------------|
----------------------------------------------|
----------------------------------------------|
--------------------5-8-------------------5-8-|
--0--8--5--0--5--0------0--8--5--0--5--0------|


  PM PM PM PM PM PM     PM PM PM PM PM PM           
  S  S  S  S  S  S  S S S  S  S  S  S  S  S S       
----------------------------------------------|----|
----------------------------------------------|----|
----------------------------------------------|----|
----------------------------------------------|----|
--------------------4-7-------------------4-7-|----|
--0--7--4--0--4--0------0--7--4--0--4--0------|----|



This following riff is repeated several times until...

  PM PM   PM   PM   PM     PM     PM       
  S  S  S S  S S  S S  S S S  S S S  S  S  
------------------------------------------|
------------------------------------------|
------------------------------------------|
------------------------------------------|
--------5----8----5----4-7----5-8----7-10-|
--0--0----0----0----0------0------0-------|


  PM PM   PM    PM   PM      PM      PM      
  S  S  S S   S S  S S   S S S   S S S  S S  
--------------------------------------------|
--------------------------------------------|
--------------------------------------------|
--------------------------------------------|
--------7----10----7----12-8----10-7----8-5-|
--0--0----0-----0----0-------0-------0------|


  PM PM   PM   PM   PM     PM     PM       
  S  S  S S  S S  S S  S S S  S S S  S  S  
------------------------------------------|
------------------------------------------|
------------------------------------------|
------------------------------------------|
--------5----8----5----4-7----5-8----7-10-|
--0--0----0----0----0------0------0-------|


  PM PM   PM    PM   PM                                               
                         |--3--| |-3-|  |--3--| |-3-|                 
  S  S  S S   S S  S S   S  S  S S S S  S  S  S S S S                 
------------------------------------------------------|
------------------------------------------------------|
------------------------------------------------------|
------------------------------------------------------|
--------7----10----7----12-12-12-8-8-8-10-10-10-7-7-7-|
--0--0----0-----0----0--------------------------------|

...this riff comes in:

   |--3--| |-3-|  |--3--| |-3-| |-3-| |-3-| |-3-| |-3-|  
   S  S  S S S S  S  S  S S S S S S S S S S S S S S S S  
--------------------------------------------------------|
--------------------------------------------------------|
--------------------------------------------------------|
--------------------------------------------------------| x8
--12-12-12-8-8-8-10-10-10-7-7-7-8-8-8-5-5-5-7-7-7-4-4-4-|
--------------------------------------------------------|

After the fourth time, the right guitar starts chugging the same way it did before.
This pattern is also used in the breakdown:

  PM PM PM PM   PM PM PM PM   PM PM PM PM   PM PM PM PM    
  |--3--|       |--3--|       |--3--|       |--3--|        
  S  S  S  S  S S  S  S  S  S S  S  S  S  S S  S  S  S  S  
----------------------------------------------------------|
----------------------------------------------------------|
----------------------------------------------------------|
----------------------------------------------------------|
--0--0--0--0----0--0--0--0----0--0--0--0----0--0--0--0----|
--0--0--0--0----0--0--0--0----0--0--0--0----0--0--0--0----|


      PM PM PM PM       PM PM PM PM   PM PM PM PM    
      |--3--|           |--3--|       |--3--|        
  S S S  S  S  S  S S S S  S  S  S  S S  S  S  S  S  
----------------------------------------------------||
----------------------------------------------------||
----------------------------------------------------||
----------------------------------------------------|| x2
------0--0--0--0--------0--0--0--0----0--0--0--0----||
------0--0--0--0--------0--0--0--0----0--0--0--0----||


The lead:

   S S  S S  S S  S S  S S  S S  S S  S S  
|------------------------------------------|
|------------------------------------------|
|------------------------------------------|
|--12-0-12-0-12-0-12-0-12-0-12-0-12-0-12-0-|
|------------------------------------------|
|------------------------------------------|


   S S  S S  S S  S S  S S  S S  S S  S S  
------------------------------------------|
------------------------------------------|
------------------------------------------|
--14-0-14-0-14-0-14-0-14-0-14-0-14-0-14-0-|
------------------------------------------|
------------------------------------------|


   S S  S S  S S  S S  S S  S S  S S  S S  
------------------------------------------|
------------------------------------------|
------------------------------------------|
--15-0-15-0-15-0-15-0-15-0-15-0-15-0-15-0-|
------------------------------------------|
------------------------------------------|


   S S  S S  S S  S S  S S  S S  S S  S S  
------------------------------------------|
------------------------------------------|
------------------------------------------|
--10-0-10-0-10-0-10-0-10-0-10-0-10-0-10-0-|
------------------------------------------|
------------------------------------------|


   S S  S S  S S  S S  S S  S S  S S  S S  
------------------------------------------|
------------------------------------------|
------------------------------------------|
--12-0-12-0-12-0-12-0-12-0-12-0-12-0-12-0-|
------------------------------------------|
------------------------------------------|


   S S  S S  S S  S S  S S  S S  S S  S S  
------------------------------------------|
------------------------------------------|
------------------------------------------|
--14-0-14-0-14-0-14-0-14-0-14-0-14-0-14-0-|
------------------------------------------|
------------------------------------------|


   S S  S S  S S  S S  S S  S S  S S  S S  
------------------------------------------|
------------------------------------------|
------------------------------------------|
--15-0-15-0-15-0-15-0-15-0-15-0-15-0-15-0-|
------------------------------------------|
------------------------------------------|


   S S  S S  S S  S S  S S  S S  S S  S S  
------------------------------------------|
------------------------------------------|
------------------------------------------|
--17-0-17-0-17-0-17-0-17-0-17-0-17-0-17-0-|
------------------------------------------|
------------------------------------------|


   |--3--|  |--3--|  |--3--|  |--3--|  |--3--|  |--3--|  |--3--|  |--3
   S  S  S  S  S  S  S  S  S  S  S  S  S  S  S  S  S  S  S  S  S  S  S
----------------------------------------------------------------------
----------------------------------------------------------------------
----------------------------------------------------------------------
--19-19-19-19-19-19-19-19-19-19-19-19-19-19-19-19-19-19-19-19-19-19-19
----------------------------------------------------------------------
----------------------------------------------------------------------


   |--3--|  |--3--|  |--3--|  |--3--|  |--3--|  |--3--|  |--3--|  |--3
   S  S  S  S  S  S  S  S  S  S  S  S  S  S  S  S  S  S  S  S  S  S  S
----------------------------------------------------------------------
----------------------------------------------------------------------
----------------------------------------------------------------------
--20-20-20-20-20-20-20-20-20-20-20-20-19-19-19-19-19-19-17-17-17-17-17
----------------------------------------------------------------------
----------------------------------------------------------------------


   |--3--|  |--3--|  |--3--|  |--3--|  |--3--|  |--3--|  |--3--|  |--3
   S  S  S  S  S  S  S  S  S  S  S  S  S  S  S  S  S  S  S  S  S  S  S
----------------------------------------------------------------------
----------------------------------------------------------------------
----------------------------------------------------------------------
--15-15-15-15-15-15-15-15-15-15-15-15-15-15-15-15-15-15-15-15-15-15-15
----------------------------------------------------------------------
----------------------------------------------------------------------


   |--3--|  |--3--|  |--3--|  |--3--|  |--3--|  |--3--|  |--3--|  |--3
   S  S  S  S  S  S  S  S  S  S  S  S  S  S  S  S  S  S  S  S  S  S  S
----------------------------------------------------------------------
----------------------------------------------------------------------
----------------------------------------------------------------------
--17-17-17-17-17-17-17-17-17-17-17-17-15-15-15-15-15-15-14-14-14-14-14
----------------------------------------------------------------------
----------------------------------------------------------------------


   |--3--|  |--3--|  |--3--|  |--3--|  |--3--|  |--3--|  |--3--|  |--3
   S  S  S  S  S  S  S  S  S  S  S  S  S  S  S  S  S  S  S  S  S  S  S
----------------------------------------------------------------------
----------------------------------------------------------------------
----------------------------------------------------------------------
--12-12-12-12-12-12-12-12-12-12-12-12-12-12-12-12-12-12-12-12-12-12-12
----------------------------------------------------------------------
----------------------------------------------------------------------


   |--3--|  |--3--|  |--3--|  |--3--|  |--3--|  |--3--|  |--3--|  |--3
   S  S  S  S  S  S  S  S  S  S  S  S  S  S  S  S  S  S  S  S  S  S  S
----------------------------------------------------------------------
----------------------------------------------------------------------
----------------------------------------------------------------------
--14-14-14-14-14-14-14-14-14-14-14-14-12-12-12-12-12-12-14-14-14-14-14
----------------------------------------------------------------------
----------------------------------------------------------------------


   |--3--|  |--3--|  |--3--|  |--3--|  |--3--|  |--3--|  |--3--|  |--3
   S  S  S  S  S  S  S  S  S  S  S  S  S  S  S  S  S  S  S  S  S  S  S
----------------------------------------------------------------------
----------------------------------------------------------------------
----------------------------------------------------------------------
--15-15-15-15-15-15-15-15-15-15-15-15-15-15-15-15-15-15-15-15-15-15-15
----------------------------------------------------------------------
----------------------------------------------------------------------


   |--3--|  |--3--|  |--3--|  |--3--|  |--3--|  |--3--|  |--3--|  |--3
   S  S  S  S  S  S  S  S  S  S  S  S  S  S  S  S  S  S  S  S  S  S  S
----------------------------------------------------------------------
----------------------------------------------------------------------
--15-15-15-15-15-15-15-15-15-15-15-15-14-14-14-14-14-14-12-12-12-12-12
----------------------------------------------------------------------
----------------------------------------------------------------------
----------------------------------------------------------------------


   |--3--|  |--3--|  |--3--|  |--3--|  |--3--|  |--3--|  |--3--|  |--3
   S  S  S  S  S  S  S  S  S  S  S  S  S  S  S  S  S  S  S  S  S  S  S
----------------------------------------------------------------------
----------------------------------------------------------------------
--14-14-14-14-14-14-14-14-14-14-14-14-14-14-14-14-14-14-14-14-14-14-14
----------------------------------------------------------------------
----------------------------------------------------------------------
----------------------------------------------------------------------


   |--3--|  |--3--|  |--3--|  |--3--|  |--3--|  |--3--|  |--3--|  |--3
   S  S  S  S  S  S  S  S  S  S  S  S  S  S  S  S  S  S  S  S  S  S  S
----------------------------------------------------------------------
--------------------------------------13-13-13-13-13-13-13-13-13-13-13
--15-15-15-15-15-15-15-15-15-15-15-15---------------------------------
----------------------------------------------------------------------
----------------------------------------------------------------------
----------------------------------------------------------------------


   |--3--|  |--3--|  |--3--|  |--3--|  |--3--|  |--3--|  |--3--|  |--3
   S  S  S  S  S  S  S  S  S  S  S  S  S  S  S  S  S  S  S  S  S  S  S
----------------------------------------------------------------------
--13-13-13-13-13-13-13-13-13-13-13-13-13-13-13-13-13-13-13-13-13-13-13
----------------------------------------------------------------------
----------------------------------------------------------------------
----------------------------------------------------------------------
----------------------------------------------------------------------


   |--3--|  |--3--|  |--3--|  |--3--|  |--3--|  |--3--|  |--3--|  |--3
   S  S  S  S  S  S  S  S  S  S  S  S  S  S  S  S  S  S  S  S  S  S  S
----------------------------------------------------------------------
----------------------------------------------------------------------
--15-15-15-15-15-15-15-15-15-15-15-15-14-14-14-14-14-14-12-12-12-12-12
----------------------------------------------------------------------
----------------------------------------------------------------------
----------------------------------------------------------------------


   |--3--|  |--3--|  |--3--|  |--3--|  |--3--|  |--3--|  |--3--|  |--3
   S  S  S  S  S  S  S  S  S  S  S  S  S  S  S  S  S  S  S  S  S  S  S
----------------------------------------------------------------------
----------------------------------------------------------------------
--14-14-14-14-14-14-14-14-14-14-14-14-14-14-14-14-14-14-14-14-14-14-14
----------------------------------------------------------------------
----------------------------------------------------------------------
----------------------------------------------------------------------


   |--3--|  |--3--|  |--3--|  |--3--|  |--3--|  |--3--|  |--3--|  |--3
   S  S  S  S  S  S  S  S  S  S  S  S  S  S  S  S  S  S  S  S  S  S  S
----------------------------------------------------------------------
--15-15-15-15-15-15-15-15-15-15-15-15-15-15-15-15-15-15-15-15-15-15-15
----------------------------------------------------------------------
----------------------------------------------------------------------
----------------------------------------------------------------------
----------------------------------------------------------------------


   |--3--|  |--3--|  |--3--|  |--3--|  |--3--|  |--3--|  |--3--|  |--3
   S  S  S  S  S  S  S  S  S  S  S  S  S  S  S  S  S  S  S  S  S  S  S
----------------------------------------------------------------------
--18-18-18-18-18-18-18-18-18-18-18-18-18-18-18-18-18-18-18-18-18-18-18
----------------------------------------------------------------------
----------------------------------------------------------------------
----------------------------------------------------------------------
----------------------------------------------------------------------


   |--3--|  |--3--|  |--3--|  |--3--|  |--3--|  |--3--|  |--3--|  |--3
   S  S  S  S  S  S  S  S  S  S  S  S  S  S  S  S  S  S  S  S  S  S  S
--15-15-15-15-15-15-15-15-15-15-15-15-12-12-12-12-12-12-12-12-12-12-12
----------------------------------------------------------------------
----------------------------------------------------------------------
----------------------------------------------------------------------
----------------------------------------------------------------------
----------------------------------------------------------------------


   |---3---|   |---3---|   |---3---|   |---3---|   
   E   E   E   E   E   E   E   E   E   E   E   E   
--13--12--10--13--12--10--13--12--10--13--12--10--|
--------------------------------------------------|
--------------------------------------------------|
--------------------------------------------------|
--------------------------------------------------|
--------------------------------------------------|


   |---3---|   |---3---|   |---3---|   |---3---|   
   E   E   E   E   E   E   E   E   E   E   E   E   
--15--13--12--15--13--12--15--13--12--15--13--12--|
--------------------------------------------------|
--------------------------------------------------|
--------------------------------------------------|
--------------------------------------------------|
--------------------------------------------------|


   |---3---|   |---3---|   |---3---|   |---3---|   
   E   E   E   E   E   E   E   E   E   E   E   E   
--17--15--13--17--15--13--17--15--13--17--15--13--|
--------------------------------------------------|
--------------------------------------------------|
--------------------------------------------------|
--------------------------------------------------|
--------------------------------------------------|


   |--3--|  |--3--|  |--3--|  |--3--|  |--3--|  |--3--|  |--3--|  |--3
   S  S  S  S  S  S  S  S  S  S  S  S  S  S  S  S  S  S  S  S  S  S  S
--18-18-18-18-18-18-18-18-18-18-18-18-17-17-17-17-17-17-15-15-15-15-15
----------------------------------------------------------------------
----------------------------------------------------------------------
----------------------------------------------------------------------
----------------------------------------------------------------------
----------------------------------------------------------------------


   |---3---|   |---3---|   |---3---|   |---3---|   
   E   E   E   E   E   E   E   E   E   E   E   E   
--13--12--10--13--12--10--13--12--10--13--12--10--|
--------------------------------------------------|
--------------------------------------------------|
--------------------------------------------------|
--------------------------------------------------|
--------------------------------------------------|


   |---3---|   |---3---|   |---3---|   |---3---|   
   E   E   E   E   E   E   E   E   E   E   E   E   
--15--13--12--15--13--12--15--13--12--15--13--12--|
--------------------------------------------------|
--------------------------------------------------|
--------------------------------------------------|
--------------------------------------------------|
--------------------------------------------------|


   |---3---|   |---3---|   |---3---|   |---3---|   
   E   E   E   E   E   E   E   E   E   E   E   E   
--17--15--13--17--15--13--17--15--13--17--15--13--|
--------------------------------------------------|
--------------------------------------------------|
--------------------------------------------------|
--------------------------------------------------|
--------------------------------------------------|


   |--3--|  |--3--|  |--3--|  |--3--|  |--3--|  |--3--|  |--3--|  |--3
   S  S  S  S  S  S  S  S  S  S  S  S  S  S  S  S  S  S  S  S  S  S  S
--18-18-18-18-18-18-18-18-18-18-18-18-17-17-17-17-17-17-15-15-15-15-15
----------------------------------------------------------------------
----------------------------------------------------------------------
----------------------------------------------------------------------
----------------------------------------------------------------------
----------------------------------------------------------------------


   |--3--|  |--3--|  |--3--|  |--3--|  |--3--|  |--3--|  |--3--|  |--3
   S  S  S  S  S  S  S  S  S  S  S  S  S  S  S  S  S  S  S  S  S  S  S
--17-17-17-17-17-17-17-17-17-17-17-17-17-17-17-17-17-17-17-17-17-17-17
----------------------------------------------------------------------
----------------------------------------------------------------------
----------------------------------------------------------------------
----------------------------------------------------------------------
----------------------------------------------------------------------


   |--3--|  |--3--|  |--3--|  |--3--|  |--3--|  |--3--|  |--3--|  |--3
   S  S  S  S  S  S  S  S  S  S  S  S  S  S  S  S  S  S  S  S  S  S  S
--15-15-15-15-15-15-15-15-15-15-15-15-17-17-17-17-17-17-15-15-15-15-15
----------------------------------------------------------------------
----------------------------------------------------------------------
----------------------------------------------------------------------
----------------------------------------------------------------------
----------------------------------------------------------------------


   |--3--|  |--3--|  |--3--|  |--3--|  |--3--|  |--3--|  |--3--|  |--3
   S  S  S  S  S  S  S  S  S  S  S  S  S  S  S  S  S  S  S  S  S  S  S
--13-13-13-13-13-13-13-13-13-13-13-13-13-13-13-13-13-13-13-13-13-13-15
----------------------------------------------------------------------
----------------------------------------------------------------------
----------------------------------------------------------------------
----------------------------------------------------------------------
----------------------------------------------------------------------


   |--3--|  |--3--|  |--3--|  |--3--|  |--3--|  |--3--|  |--3--|  |--3
   S  S  S  S  S  S  S  S  S  S  S  S  S  S  S  S  S  S  S  S  S  S  S
--12-12-12-12-12-12-12-12-12-12-12-12-13-13-13-13-13-13-12-12-12-12-12
----------------------------------------------------------------------
----------------------------------------------------------------------
----------------------------------------------------------------------
----------------------------------------------------------------------
----------------------------------------------------------------------


   |--3--|  |--3--|  |--3--|  |--3--|  |--3--|  |--3--|  |--3--|  |--3
   S  S  S  S  S  S  S  S  S  S  S  S  S  S  S  S  S  S  S  S  S  S  S
--10-10-10-10-10-10-10-10-10-10-10-10-10-10-10-10-10-10-10-10-10-10-10
----------------------------------------------------------------------
----------------------------------------------------------------------
----------------------------------------------------------------------
----------------------------------------------------------------------
----------------------------------------------------------------------


   |--3--|  |--3--|  |--3--|  |--3--|  |--3--|  |--3--|  |--3--|  |--3
   S  S  S  S  S  S  S  S  S  S  S  S  S  S  S  S  S  S  S  S  S  S  S
--12-12-12-12-12-12-12-12-12-12-12-12-10-10-10-10-10-10-12-12-12-12-12
----------------------------------------------------------------------
----------------------------------------------------------------------
----------------------------------------------------------------------
----------------------------------------------------------------------
----------------------------------------------------------------------


   |--3--|  |--3--|  |--3--|  |--3--|  |--3--|  |--3--|  |--3--|  |--3
   S  S  S  S  S  S  S  S  S  S  S  S  S  S  S  S  S  S  S  S  S  S  S
--13-13-13-13-13-13-13-13-13-13-13-13-13-13-13-13-13-13-13-13-13-13-13
----------------------------------------------------------------------
----------------------------------------------------------------------
----------------------------------------------------------------------
----------------------------------------------------------------------
----------------------------------------------------------------------


   H          Q     Q                                             
--15b--------12----13----|
-------------------------|
-------------------------|
-------------------------|
-------------------------|
-------------------------| (I really hate tremelo picking because of this solo)



Here's the rhythm, in case you're DYING to play it (I'm not posting the harmony. It's
a harmony, dammit, figure it out. Not that hard):

  can't guarantee the accuracy here...                       
  W                                        W                 
---------------------------------------|--------------------|
---------------------------------------|--------------------|
---------------------------------------|--10----------------|
--0------------------------------------|--------------------|
--0------------------------------------|---8----------------|
--0------------------------------------|--------------------|


                           PM PM PM                                
                           |--3--|                                 
  W                   Q    E  E  E  Q    Q       W                 
-------------------|--------------------------|-------------------|
-------------------|--------------------------|-------------------|
--9----------------|--------------------------|-------------------|
-------------------|--2-------------2----2----|--0----------------|
--7----------------|--3----0--0--0--3----3----|--0----------------|
-------------------|-------0--0--0------------|--0----------------|


                                                PM PM PM            
                                                |--3--|             
   W                   W                   Q    E  E  E  Q    Q     
--------------------|-------------------|--------------------------|
--------------------|-------------------|--------------------------|
--10----------------|--9----------------|--------------------------|
--------------------|-------------------|--2-------------2----2----|
---8----------------|--7----------------|--3----0--0--0--3----3----|
--------------------|-------------------|-------0--0--0------------|


  |-3-| |-3-| |-3-| |-3-| |-3-| |-3-| |-3-| |-3-|  
  S S S S S S S S S S S S S S S S S S S S S S S S  
--------------------------------------------------|
--------------------------------------------------|
--------------------------------------------------|
--------------------------------------------------|
--5-5-5-5-5-5-5-5-5-5-5-5-5-5-5-5-5-5-5-5-5-5-5-5-|
--------------------------------------------------|


  |-3-| |-3-| |-3-| |-3-| |-3-| |-3-| |-3-| |-3-|  
  S S S S S S S S S S S S S S S S S S S S S S S S  
--------------------------------------------------|
--------------------------------------------------|
--------------------------------------------------|
--------------------------------------------------|
--7-7-7-7-7-7-7-7-7-7-7-7-7-7-7-7-7-7-7-7-7-7-7-7-|
--------------------------------------------------|


  |-3-| |-3-| |-3-| |-3-| |-3-| |-3-| |-3-| |-3-|  
  S S S S S S S S S S S S S S S S S S S S S S S S  
--------------------------------------------------|
--------------------------------------------------|
--------------------------------------------------|
--------------------------------------------------|
--8-8-8-8-8-8-8-8-8-8-8-8-8-8-8-8-8-8-8-8-8-8-8-8-|
--------------------------------------------------|


   |--3--|  |--3--|  |--3--|  |--3--| |-3-| |-3-| |-3-| |-3-|  
   S  S  S  S  S  S  S  S  S  S  S  S S S S S S S S S S S S S  
--------------------------------------------------------------|
--------------------------------------------------------------|
--------------------------------------------------------------|
--------------------------------------------------------------|
--12-12-12-12-12-12-12-12-12-12-12-12-8-8-8-8-8-8-7-7-7-7-7-7-|
--------------------------------------------------------------|


  |-3-| |-3-| |-3-| |-3-| |-3-| |-3-| |-3-| |-3-|  
  S S S S S S S S S S S S S S S S S S S S S S S S  
--------------------------------------------------|
--------------------------------------------------|
--------------------------------------------------|
--------------------------------------------------|
--5-5-5-5-5-5-5-5-5-5-5-5-5-5-5-5-5-5-5-5-5-5-5-5-|
--------------------------------------------------|


  |-3-| |-3-| |-3-| |-3-| |-3-| |-3-| |-3-| |-3-|  
  S S S S S S S S S S S S S S S S S S S S S S S S  
--------------------------------------------------|
--------------------------------------------------|
--------------------------------------------------|
--------------------------------------------------|
--7-7-7-7-7-7-7-7-7-7-7-7-7-7-7-7-7-7-7-7-7-7-7-7-|
--------------------------------------------------|


  |-3-| |-3-| |-3-| |-3-| |-3-| |-3-| |-3-| |-3-|  
  S S S S S S S S S S S S S S S S S S S S S S S S  
--------------------------------------------------|
--------------------------------------------------|
--------------------------------------------------|
--------------------------------------------------|
--8-8-8-8-8-8-8-8-8-8-8-8-8-8-8-8-8-8-8-8-8-8-8-8-|
--------------------------------------------------|


   |--3--|  |--3--|  |--3--|  |--3--| |-3-| |-3-|  |--3--|  |--3--|  
   S  S  S  S  S  S  S  S  S  S  S  S S S S S S S  S  S  S  S  S  S  
--------------------------------------------------------------------|
--------------------------------------------------------------------|
--------------------------------------------------------------------|
--------------------------------------------------------------------|
--12-12-12-12-12-12-12-12-12-12-12-12-8-8-8-8-8-8-10-10-10-10-10-10-|
--------------------------------------------------------------------|


  |-3-| |-3-| |-3-| |-3-| |-3-| |-3-| |-3-| |-3-|  
  S S S S S S S S S S S S S S S S S S S S S S S S  
--------------------------------------------------|
--------------------------------------------------|
--------------------------------------------------|
--------------------------------------------------|
--5-5-5-5-5-5-5-5-5-5-5-5-5-5-5-5-5-5-5-5-5-5-5-5-|
--------------------------------------------------|


  |-3-| |-3-| |-3-| |-3-| |-3-| |-3-| |-3-| |-3-|  
  S S S S S S S S S S S S S S S S S S S S S S S S  
--------------------------------------------------|
--------------------------------------------------|
--------------------------------------------------|
--------------------------------------------------|
--7-7-7-7-7-7-7-7-7-7-7-7-7-7-7-7-7-7-7-7-7-7-7-7-|
--------------------------------------------------|


  |-3-| |-3-| |-3-| |-3-| |-3-| |-3-| |-3-| |-3-|  
  S S S S S S S S S S S S S S S S S S S S S S S S  
--------------------------------------------------|
--------------------------------------------------|
--------------------------------------------------|
--------------------------------------------------|
--8-8-8-8-8-8-8-8-8-8-8-8-8-8-8-8-8-8-8-8-8-8-8-8-|
--------------------------------------------------|


   |--3--|  |--3--|  |--3--|  |--3--| |-3-| |-3-| |-3-| |-3-|  
   S  S  S  S  S  S  S  S  S  S  S  S S S S S S S S S S S S S  
--------------------------------------------------------------|
--------------------------------------------------------------|
--------------------------------------------------------------|
--------------------------------------------------------------|
--12-12-12-12-12-12-12-12-12-12-12-12-8-8-8-8-8-8-7-7-7-7-7-7-|
--------------------------------------------------------------|


  |-3-| |-3-| |-3-| |-3-| |-3-| |-3-| |-3-| |-3-|  
  S S S S S S S S S S S S S S S S S S S S S S S S  
--------------------------------------------------|
--------------------------------------------------|
--------------------------------------------------|
--------------------------------------------------|
--5-5-5-5-5-5-5-5-5-5-5-5-5-5-5-5-5-5-5-5-5-5-5-5-|
--------------------------------------------------|


  |-3-| |-3-| |-3-| |-3-| |-3-| |-3-| |-3-| |-3-|  
  S S S S S S S S S S S S S S S S S S S S S S S S  
--------------------------------------------------|
--------------------------------------------------|
--------------------------------------------------|
--------------------------------------------------|
--7-7-7-7-7-7-7-7-7-7-7-7-7-7-7-7-7-7-7-7-7-7-7-7-|
--------------------------------------------------|


  |-3-| |-3-| |-3-| |-3-| |-3-| |-3-| |-3-| |-3-|  
  S S S S S S S S S S S S S S S S S S S S S S S S  
--------------------------------------------------|
--------------------------------------------------|
--------------------------------------------------|
--------------------------------------------------|
--8-8-8-8-8-8-8-8-8-8-8-8-8-8-8-8-8-8-8-8-8-8-8-8-|
--------------------------------------------------|


   |--3--|  |--3--|  |--3--|  |--3--| |-3-| |-3-|  |--3--|  |--3--|  
   S  S  S  S  S  S  S  S  S  S  S  S S S S S S S  S  S  S  S  S  S  
--------------------------------------------------------------------|
--------------------------------------------------------------------|
--------------------------------------------------------------------|
--------------------------------------------------------------------|
--12-12-12-12-12-12-12-12-12-12-12-12-8-8-8-8-8-8-10-10-10-10-10-10-|
--------------------------------------------------------------------|


  PM PM PM                                      
  |--3--|  |-3-| |-3-| |-3-| |-3-| |-3-| |-3-|  
  E  E  E  S S S S S S S S S S S S S S S S S S  
-----------------------------------------------|
-----------------------------------------------|
-----------------------------------------------|
-----------------------------------------------|
--0--0--0--5-5-5-5-5-5-5-5-5-5-5-5-5-5-5-5-5-5-|
--0--0--0--------------------------------------|


  PM PM PM                                      
  |--3--|  |-3-| |-3-| |-3-| |-3-| |-3-| |-3-|  
  E  E  E  S S S S S S S S S S S S S S S S S S  
-----------------------------------------------|
-----------------------------------------------|
-----------------------------------------------|
-----------------------------------------------|
--0--0--0--7-7-7-7-7-7-7-7-7-7-7-7-7-7-7-7-7-7-|
--0--0--0--------------------------------------|


  PM PM PM                                      
  |--3--|  |-3-| |-3-| |-3-| |-3-| |-3-| |-3-|  
  E  E  E  S S S S S S S S S S S S S S S S S S  
-----------------------------------------------|
-----------------------------------------------|
-----------------------------------------------|
-----------------------------------------------|
--0--0--0--8-8-8-8-8-8-8-8-8-8-8-8-8-8-8-8-8-8-|
--0--0--0--------------------------------------|


   |--3--|  |--3--|  |--3--|  |--3--| |-3-| |-3-| |-3-| |-3-|  
   S  S  S  S  S  S  S  S  S  S  S  S S S S S S S S S S S S S  
--------------------------------------------------------------|
--------------------------------------------------------------|
--------------------------------------------------------------|
--------------------------------------------------------------|
--12-12-12-12-12-12-12-12-12-12-12-12-8-8-8-8-8-8-7-7-7-7-7-7-|
--------------------------------------------------------------|


  PM PM PM                                      
  |--3--|  |-3-| |-3-| |-3-| |-3-| |-3-| |-3-|  
  E  E  E  S S S S S S S S S S S S S S S S S S  
-----------------------------------------------|
-----------------------------------------------|
-----------------------------------------------|
-----------------------------------------------|
--0--0--0--5-5-5-5-5-5-5-5-5-5-5-5-5-5-5-5-5-5-|
--0--0--0--------------------------------------|


  PM PM PM                                      
  |--3--|  |-3-| |-3-| |-3-| |-3-| |-3-| |-3-|  
  E  E  E  S S S S S S S S S S S S S S S S S S  
-----------------------------------------------|
-----------------------------------------------|
-----------------------------------------------|
-----------------------------------------------|
--0--0--0--7-7-7-7-7-7-7-7-7-7-7-7-7-7-7-7-7-7-|
--0--0--0--------------------------------------|


  PM PM PM                                      
  |--3--|  |-3-| |-3-| |-3-| |-3-| |-3-| |-3-|  
  E  E  E  S S S S S S S S S S S S S S S S S S  
-----------------------------------------------|
-----------------------------------------------|
-----------------------------------------------|
-----------------------------------------------|
--0--0--0--8-8-8-8-8-8-8-8-8-8-8-8-8-8-8-8-8-8-|
--0--0--0--------------------------------------|


   |--3--|  |--3--|  |--3--|  |--3--| |-3-| |-3-|  |--3--|  |--3--|  
   S  S  S  S  S  S  S  S  S  S  S  S S S S S S S  S  S  S  S  S  S  
--------------------------------------------------------------------|
--------------------------------------------------------------------|
--------------------------------------------------------------------|
--------------------------------------------------------------------|
--12-12-12-12-12-12-12-12-12-12-12-12-8-8-8-8-8-8-10-10-10-10-10-10-|
--------------------------------------------------------------------|


  PM PM PM                                      
  |--3--|  |-3-| |-3-| |-3-| |-3-| |-3-| |-3-|  
  E  E  E  S S S S S S S S S S S S S S S S S S  
-----------------------------------------------|
-----------------------------------------------|
-----------------------------------------------|
-----------------------------------------------|
--0--0--0--5-5-5-5-5-5-5-5-5-5-5-5-5-5-5-5-5-5-|
--0--0--0--------------------------------------|


  PM PM PM                                      
  |--3--|  |-3-| |-3-| |-3-| |-3-| |-3-| |-3-|  
  E  E  E  S S S S S S S S S S S S S S S S S S  
-----------------------------------------------|
-----------------------------------------------|
-----------------------------------------------|
-----------------------------------------------|
--0--0--0--7-7-7-7-7-7-7-7-7-7-7-7-7-7-7-7-7-7-|
--0--0--0--------------------------------------|


  PM PM PM                                      
  |--3--|  |-3-| |-3-| |-3-| |-3-| |-3-| |-3-|  
  E  E  E  S S S S S S S S S S S S S S S S S S  
-----------------------------------------------|
-----------------------------------------------|
-----------------------------------------------|
-----------------------------------------------|
--0--0--0--8-8-8-8-8-8-8-8-8-8-8-8-8-8-8-8-8-8-|
--0--0--0--------------------------------------|


   |--3--|  |--3--|  |--3--|  |--3--| |-3-| |-3-| |-3-| |-3-|  
   S  S  S  S  S  S  S  S  S  S  S  S S S S S S S S S S S S S  
--------------------------------------------------------------|
--------------------------------------------------------------|
--------------------------------------------------------------|
--------------------------------------------------------------|
--12-12-12-12-12-12-12-12-12-12-12-12-8-8-8-8-8-8-7-7-7-7-7-7-|
--------------------------------------------------------------|


  PM PM PM                                      
  |--3--|  |-3-| |-3-| |-3-| |-3-| |-3-| |-3-|  
  E  E  E  S S S S S S S S S S S S S S S S S S  
-----------------------------------------------|
-----------------------------------------------|
-----------------------------------------------|
-----------------------------------------------|
--0--0--0--5-5-5-5-5-5-5-5-5-5-5-5-5-5-5-5-5-5-|
--0--0--0--------------------------------------|


  PM PM PM                                      
  |--3--|  |-3-| |-3-| |-3-| |-3-| |-3-| |-3-|  
  E  E  E  S S S S S S S S S S S S S S S S S S  
-----------------------------------------------|
-----------------------------------------------|
-----------------------------------------------|
-----------------------------------------------|
--0--0--0--7-7-7-7-7-7-7-7-7-7-7-7-7-7-7-7-7-7-|
--0--0--0--------------------------------------|


  PM PM PM                                      
  |--3--|  |-3-| |-3-| |-3-| |-3-| |-3-| |-3-|  
  E  E  E  S S S S S S S S S S S S S S S S S S  
-----------------------------------------------|
-----------------------------------------------|
-----------------------------------------------|
-----------------------------------------------|
--0--0--0--8-8-8-8-8-8-8-8-8-8-8-8-8-8-8-8-8-8-|
--0--0--0--------------------------------------|


   |--3--|  |--3--|  |--3--|  |--3--| |-3-| |-3-|  |--3--|  |--3--|  
   S  S  S  S  S  S  S  S  S  S  S  S S S S S S S  S  S  S  S  S  S  
--------------------------------------------------------------------|
--------------------------------------------------------------------|
--------------------------------------------------------------------|
--------------------------------------------------------------------|
--12-12-12-12-12-12-12-12-12-12-12-12-8-8-8-8-8-8-10-10-10-10-10-10-|
--------------------------------------------------------------------|


Then the verse riff again a few times:

  PM PM   PM   PM   PM     PM     PM       
  S  S  S S  S S  S S  S S S  S S S  S  S  
------------------------------------------|
------------------------------------------|
------------------------------------------|
------------------------------------------|
--------5----8----5----4-7----5-8----7-10-|
--0--0----0----0----0------0------0-------|


  PM PM   PM    PM   PM      PM      PM      
  S  S  S S   S S  S S   S S S   S S S  S S  
--------------------------------------------|
--------------------------------------------|
--------------------------------------------|
--------------------------------------------|
--------7----10----7----12-8----10-7----8-5-|
--0--0----0-----0----0-------0-------0------|


  PM PM   PM   PM   PM     PM     PM       
  S  S  S S  S S  S S  S S S  S S S  S  S  
------------------------------------------|
------------------------------------------|
------------------------------------------|
------------------------------------------|
--------5----8----5----4-7----5-8----7-10-|
--0--0----0----0----0------0------0-------|


  PM PM   PM    PM   PM                                               
                         |--3--| |-3-|  |--3--| |-3-|                 
  S  S  S S   S S  S S   S  S  S S S S  S  S  S S S S                 
------------------------------------------------------|
------------------------------------------------------|
------------------------------------------------------|
------------------------------------------------------|
--------7----10----7----12-12-12-8-8-8-10-10-10-7-7-7-|
--0--0----0-----0----0--------------------------------|


Followed by the first half of the intro riff repeated a few times:

     PM PM
            |--3*-| |-3-|  |--3--|  |--3--| |-3-|  |--3--| |-3-|
     S  S   S  S  S S S S  S  S  S  S  S  S S S S  S  S  S S S S
D||--------------------------------------------------------------|
A||--------------------------------------------------------------|
F||--------------------------------------------------------------|
C||--------------------------------------------------------------|
G||--------12-12-12-8-8-8-------------------------10-10-10-8-8-8-|
C||--0--0-----------------10-10-10-12-12-12-8-8-8----------------|


  PM PM
         |--3--| |-3-|  |--3--|  |--3--| |-3-| |-3-| |-3-|
  S  S   S  S  S S S S  S  S  S  S  S  S S S S S S S S S S
-----------------------------------------------------------|
-----------------------------------------------------------|
-----------------------------------------------------------|
-----------------------------------------------------------|
--------12-12-12-8-8-8-------------------------7-7-7-8-8-8-|
--0--0-----------------10-10-10-12-12-12-8-8-8-------------|


Now this is where we finally get something fresh:

       |--3--| |-3-| |-3-| |-3-| |-3-|            
  S S  S  S  S S S S S S S S S S S S S S  S S  S  
-------------------------------------------------|
-------------------------------------------------|
-------------------------------------------------|
-------------------------------------------------|
------12-12-12-8-8-8-7-7-7-8-8-8-7-7-7-5p-0-4p-0-|
--0-0--------------------------------------------|


       |--3--| |-3-| |-3-| |-3-| |-3-|            
  S S  S  S  S S S S S S S S S S S S S S  S S  S  
-------------------------------------------------|
-------------------------------------------------|
-------------------------------------------------|
-------------------------------------------------|
------12-12-12-8-8-8-7-7-7-8-8-8-7-7-7-5p-0-4p-0-|
--0-0--------------------------------------------|


       |--3--| |-3-| |-3-| |-3-| |-3-|            
  S S  S  S  S S S S S S S S S S S S S S  S S  S  
-------------------------------------------------|
-------------------------------------------------|
-------------------------------------------------|
-------------------------------------------------|
------12-12-12-8-8-8-7-7-7-8-8-8-7-7-7-5p-0-4p-0-|
--0-0--------------------------------------------|


   H        Q    Q     
----------------------|
----------------------|
----------------------|
----------------------|
--12--------8----7----|
----------------------|


The harmony:

      |-3-| |-3-| |-3-| |-3-| |-3-|                     
  S S S S S S S S S S S S S S S S S S           S S  S  
-------------------------------------------------------|
-------------------------------------------------------|
-------------------------------------------------------|
------------------------------------8p----------0-7p-0-| x3
------8-8-8-5-5-5-4-4-4-5-5-5-4-4-4--------------------|
--0-0--------------------------------------------------|

  H        Q    Q           
---------------------|
---------------------|
---------------------|
---------------------|
--8--------5----4----|
---------------------|


Chug like just before...

Then the outro (left guitar):

   E                                      E   E   E   E   Q.      
-----------------------------------------------------------------|
-----------------------------------------------------------------|
--10s-------------------------------------9s--7s--9s--7s--6------|
-----------------------------------------------------------------|
---8s-------------------------------------7s--5s--7s--5s--4------|
-----------------------------------------------------------------|


  W                    E   E   E   E   E   E   Q     
-------------------|--------------------------------|
-------------------|--------------------------------|
--L----------------|--10s--9s--7s--9s--7s--3s--6----|
-------------------|--------------------------------|
--L----------------|---8s--7s--5s--7s--5s--1s--4----|
-------------------|--------------------------------|


  W                    E   E   E   E   E   Q.      
-------------------|------------------------------|
-------------------|------------------------------|
--L----------------|--10s--9s--7s--9s--7s--6------|
-------------------|------------------------------|
--L----------------|---8s--7s--5s--7s--5s--4------|
-------------------|------------------------------|


  W                    E   E   E   E   E   E   E  E   
-------------------|---------------------------------|
-------------------|---------------------------------|
--L----------------|--10s--9s--7s--9s--7s--3s--6-----|
-------------------|---------------------------------|
--L----------------|---8s--7s--5s--7s--5s--1s--4-----|
-------------------|---------------------------------|


  W                    E   E   E   E   E   Q.      
-------------------|------------------------------|
-------------------|------------------------------|
-------------------|--10s--9s--7s--9s--7s--6------|
-------------------|------------------------------|
-------------------|---8s--7s--5s--7s--5s--4------|
-------------------|------------------------------|


  W                    E   E   E   E   E   E   Q     
-------------------|--------------------------------|
-------------------|--------------------------------|
--L----------------|--10s--9s--7s--9s--7s--3s--6----|
-------------------|--------------------------------|
--L----------------|---8s--7s--5s--7s--5s--1s--4----|
-------------------|--------------------------------|


           PM PM PM PM   PM PM PM PM    
           |--3--|       |--3--|        
  H        S  S  S  S  S S  S  S  S  S  
---------------------------------------|
---------------------------------------|
--L------------------------------------|
---------------------------------------|
--L--------0--0--0--0----0--0--0--0----|
-----------0--0--0--0----0--0--0--0----|


   E   E   E   E   E   Q.        W                 
------------------------------|-------------------|
------------------------------|-------------------|
--10s--9s--7s--9s--7s--6------|--L----------------|
------------------------------|-------------------|
---8s--7s--5s--7s--5s--4------|--L----------------|
------------------------------|-------------------|


   E   E   E   E   E   E   E  E     W                 
---------------------------------|-------------------|
---------------------------------|-------------------|
--10s--9s--7s--9s--7s--3s--6-----|-------------------|
---------------------------------|-------------------|
---8s--7s--5s--7s--5s--1s--4-----|-------------------|
---------------------------------|-------------------|


   E   E   E   E   E   Q.        W                 
------------------------------|-------------------|
------------------------------|-------------------|
--10s--9s--7s--9s--7s--6------|--L----------------|
------------------------------|-------------------|
---8s--7s--5s--7s--5s--4------|--L----------------|
------------------------------|-------------------|


                                            PM PM PM   PM PM PM    
   E   E   E   E   E   E   Q       H        S  S  S  S S  S  S  S  
--------------------------------|---------------------------------|
--------------------------------|---------------------------------|
--10s--9s--7s--9s--7s--3s--6----|--L------------------------------|
--------------------------------|---------------------------------|
---8s--7s--5s--7s--5s--1s--4----|--L--------0--0--0----0--0--0----|
--------------------------------|-----------0--0--0----0--0--0----|


   E   E   E   E   E   Q.        W                 
------------------------------|-------------------|
------------------------------|-------------------|
--10s--9s--7s--9s--7s--6------|--L----------------|
------------------------------|-------------------|
---8s--7s--5s--7s--5s--4------|--L----------------|
------------------------------|-------------------|


   E   E   E   E   E   E   E  E     W                 
---------------------------------|-------------------|
---------------------------------|-------------------|
--10s--9s--7s--9s--7s--3s--6-----|-------------------|
---------------------------------|-------------------|
---8s--7s--5s--7s--5s--1s--4-----|-------------------|
---------------------------------|-------------------|


  PM PM PM   PM PM PM       PM PM PM        
  S  S  S  S S  S  S  S S S S  S  S  S S S  
-------------------------------------------|
-------------------------------------------|
-------------------------------------------|
-------------------------------------------|
--0--0--0----0--0--0--------0--0--0--------|
--0--0--0----0--0--0--------0--0--0--------|


                  PM PM PM PM PM PM PM PM  
  S S S S S S S S S  S  S  S  S  S  S  S   
------------------------------------------|
------------------------------------------|
------------------------------------------|
------------------------------------------|
------------------0--0--0--0--0--0--0--0--|
------------------0--0--0--0--0--0--0--0--|


  PM PM PM   PM PM PM       PM PM PM        
  S  S  S  S S  S  S  S S S S  S  S  S S S  
-------------------------------------------|
-------------------------------------------|
-------------------------------------------|
-------------------------------------------|
--0--0--0----0--0--0--------0--0--0--------|
--0--0--0----0--0--0--------0--0--0--------|


                  PM PM PM   PM PM PM    
  S S S S S S S S S  S  S  S S  S  S  S  
----------------------------------------|
----------------------------------------|
----------------------------------------|
----------------------------------------|
------------------0--0--0----0--0--0----|
------------------0--0--0----0--0--0----|


  PM PM PM   PM PM PM       PM PM PM        
  S  S  S  S S  S  S  S S S S  S  S  S S S  
-------------------------------------------|
-------------------------------------------|
-------------------------------------------|
-------------------------------------------|
--0--0--0----0--0--0--------0--0--0--------|
--0--0--0----0--0--0--------0--0--0--------|


                  PM PM PM PM PM PM PM PM  
  S S S S S S S S S  S  S  S  S  S  S  S   
------------------------------------------|
------------------------------------------|
------------------------------------------|
------------------------------------------|
------------------0--0--0--0--0--0--0--0--|
------------------0--0--0--0--0--0--0--0--|


  PM PM PM   PM PM PM       PM PM PM        
  S  S  S  S S  S  S  S S S S  S  S  S S S  
-------------------------------------------|
-------------------------------------------|
-------------------------------------------|
-------------------------------------------|
--0--0--0----0--0--0--------0--0--0--------|
--0--0--0----0--0--0--------0--0--0--------|


                  PM PM PM   PM PM PM      PM                      
  S S S S S S S S S  S  S  S S  S  S  S    S  S E  H        Q      
----------------------------------------|------------------------||
----------------------------------------|------------------------||
----------------------------------------|------------------------||
----------------------------------------|------------------------||
------------------0--0--0----0--0--0----|--0---------------------||
------------------0--0--0----0--0--0----|--0---------------------||

And the right guitar for the outro:

   E    E    E    E    E   Q.        W                 
----------------------------------|-------------------|
----------------------------------|-------------------|
--14s--12s--10s--12s--10s--9------|--L----------------|
----------------------------------|-------------------|
--12s--10s---8s--10s---8s--7------|--L----------------|
----------------------------------|-------------------|


   E    E    E    E    E   E   Q       W                 
------------------------------------|-------------------|
------------------------------------|-------------------|
--14s--12s--10s--12s--10s--6s--9----|--L----------------|
------------------------------------|-------------------|
--12s--10s---8s--10s---8s--4s--7----|--L----------------|
------------------------------------|-------------------|


   E    E    E    E    E   Q.        W                 
----------------------------------|-------------------|
----------------------------------|-------------------|
--14s--12s--10s--12s--10s--9------|--L----------------|
----------------------------------|-------------------|
--12s--10s---8s--10s---8s--7------|--L----------------|
----------------------------------|-------------------|


   E    E    E    E    E   E   E  E     W                 
-------------------------------------|-------------------|
-------------------------------------|-------------------|
--14s--12s--10s--12s--10s--6s--9-----|-------------------|
-------------------------------------|-------------------|
--12s--10s---8s--10s---8s--4s--7-----|-------------------|
-------------------------------------|-------------------|


   E    E    E    E    E   Q.        W                 
----------------------------------|-------------------|
----------------------------------|-------------------|
--14s--12s--10s--12s--10s--9------|--L----------------|
----------------------------------|-------------------|
--12s--10s---8s--10s---8s--7------|--L----------------|
----------------------------------|-------------------|


   E    E    E    E    E   E   Q     
------------------------------------|
------------------------------------|
--14s--12s--10s--12s--10s--6s--9----|
------------------------------------|
--12s--10s---8s--10s---8s--4s--7----|
------------------------------------|


           PM PM PM PM   PM PM PM PM    
           |--3--|       |--3--|        
  H        S  S  S  S  S S  S  S  S  S  
---------------------------------------|
---------------------------------------|
--L------------------------------------|
---------------------------------------|
--L--------0--0--0--0----0--0--0--0----|
-----------0--0--0--0----0--0--0--0----|


   E    E    E    E    E   Q.        W                 
----------------------------------|-------------------|
----------------------------------|-------------------|
--14s--12s--10s--12s--10s--9------|--L----------------|
----------------------------------|-------------------|
--12s--10s---8s--10s---8s--7------|--L----------------|
----------------------------------|-------------------|


                                                 PM PM PM PM PM PM  
                                                 |--3--|  |--3--|   
   E    E    E    E    E   E   E  E     H        E  E  E  E  E  E   
-------------------------------------|-----------------------------|
-------------------------------------|-----------------------------|
--14s--12s--10s--12s--10s--6s--9-----|-----------------------------|
-------------------------------------|-----------------------------|
--12s--10s---8s--10s---8s--4s--7-----|-----------0--0--0--0--0--0--|
-------------------------------------|-----------0--0--0--0--0--0--|


  PM PM PM   PM PM PM       PM PM PM        
  S  S  S  S S  S  S  S S S S  S  S  S S S  
-------------------------------------------|
-------------------------------------------|
-------------------------------------------|
-------------------------------------------|
--0--0--0----0--0--0--------0--0--0--------|
--0--0--0----0--0--0--------0--0--0--------|


                  PM PM PM PM PM PM PM PM  
  S S S S S S S S S  S  S  S  S  S  S  S   
------------------------------------------|
------------------------------------------|
------------------------------------------|
------------------------------------------|
------------------0--0--0--0--0--0--0--0--|
------------------0--0--0--0--0--0--0--0--|


  PM PM PM   PM PM PM       PM PM PM        
  S  S  S  S S  S  S  S S S S  S  S  S S S  
-------------------------------------------|
-------------------------------------------|
-------------------------------------------|
-------------------------------------------|
--0--0--0----0--0--0--------0--0--0--------|
--0--0--0----0--0--0--------0--0--0--------|


                  PM PM PM   PM PM PM    
  S S S S S S S S S  S  S  S S  S  S  S  
----------------------------------------|
----------------------------------------|
----------------------------------------|
----------------------------------------|
------------------0--0--0----0--0--0----|
------------------0--0--0----0--0--0----|


  PM PM PM   PM PM PM       PM PM PM        
  S  S  S  S S  S  S  S S S S  S  S  S S S  
-------------------------------------------|
-------------------------------------------|
-------------------------------------------|
-------------------------------------------|
--0--0--0----0--0--0--------0--0--0--------|
--0--0--0----0--0--0--------0--0--0--------|


                  PM PM PM PM PM PM PM PM  
  S S S S S S S S S  S  S  S  S  S  S  S   
------------------------------------------|
------------------------------------------|
------------------------------------------|
------------------------------------------|
------------------0--0--0--0--0--0--0--0--|
------------------0--0--0--0--0--0--0--0--|


  PM PM PM   PM PM PM       PM PM PM             
  S  S  S  S S  S  S  S S S S  S  S  S S S       
-------------------------------------------|----|
-------------------------------------------|----|
-------------------------------------------|----|
-------------------------------------------|----|
--0--0--0----0--0--0--------0--0--0--------|----|
--0--0--0----0--0--0--------0--0--0--------|----|


  PM PM PM   PM PM PM       PM PM PM        
  S  S  S  S S  S  S  S S S S  S  S  S S S  
-------------------------------------------|
-------------------------------------------|
-------------------------------------------|
-------------------------------------------|
--0--0--0----0--0--0--------0--0--0--------|
--0--0--0----0--0--0--------0--0--0--------|


                  PM PM PM PM PM PM PM PM  
  S S S S S S S S S  S  S  S  S  S  S  S   
------------------------------------------|
------------------------------------------|
------------------------------------------|
------------------------------------------|
------------------0--0--0--0--0--0--0--0--|
------------------0--0--0--0--0--0--0--0--|


  PM PM PM   PM PM PM       PM PM PM        
  S  S  S  S S  S  S  S S S S  S  S  S S S  
-------------------------------------------|
-------------------------------------------|
-------------------------------------------|
-------------------------------------------|
--0--0--0----0--0--0--------0--0--0--------|
--0--0--0----0--0--0--------0--0--0--------|


                  PM PM PM   PM PM PM    
  S S S S S S S S S  S  S  S S  S  S  S  
----------------------------------------|
----------------------------------------|
----------------------------------------|
----------------------------------------|
------------------0--0--0----0--0--0----|
------------------0--0--0----0--0--0----|


  PM PM PM   PM PM PM       PM PM PM        
  S  S  S  S S  S  S  S S S S  S  S  S S S  
-------------------------------------------|
-------------------------------------------|
-------------------------------------------|
-------------------------------------------|
--0--0--0----0--0--0--------0--0--0--------|
--0--0--0----0--0--0--------0--0--0--------|


                  PM PM PM PM PM PM PM PM  
  S S S S S S S S S  S  S  S  S  S  S  S   
------------------------------------------|
------------------------------------------|
------------------------------------------|
------------------------------------------|
------------------0--0--0--0--0--0--0--0--|
------------------0--0--0--0--0--0--0--0--|


  PM PM PM   PM PM PM       PM PM PM        
  S  S  S  S S  S  S  S S S S  S  S  S S S  
-------------------------------------------|
-------------------------------------------|
-------------------------------------------|
-------------------------------------------|
--0--0--0----0--0--0--------0--0--0--------|
--0--0--0----0--0--0--------0--0--0--------|


                  PM PM PM   PM PM PM      PM                      
  S S S S S S S S S  S  S  S S  S  S  S    S  S E  H        Q      
----------------------------------------|------------------------||
----------------------------------------|------------------------||
----------------------------------------|------------------------||
----------------------------------------|------------------------||
------------------0--0--0----0--0--0----|--0---------------------||
------------------0--0--0----0--0--0----|--0---------------------||



Tabbing out this song (and pasting it into notepad) made me realize
how much I really hate dual guitar harmonies.




Duration Legend
---------------
W - whole
H - half
Q - quarter
E - 8th
S - 16th
T - 32nd
X - 64th
. - note dotted
|-n-|  - n-tuplets


Tablature Legend
----------------
L - tied note
x - dead note
g - grace note
(n) - ghost note
> - accentuded note
NH - natural harmonic
AH - artificial harmonic
TH - tapped harmonic
SH - semi harmonic
PH - pitch harmonic
h - hammer on
p - pull off
b - bend
br - bendRelease
pb - preBend
pbr - preBendRelease
brb - bendReleaseBend
\n/ - tremolo bar dip
\n - tremolo bar dive
-/n - tremolo bar Release up
/n\ - tremolo bar inverted dip
/n - tremolo bar return
-\n - tremolo bar Release down
S - shift slide
s - legato slide
/ -  slide into from below or out of upwards
\ -  slide into from above or out of downwards
~ - vibrato
W - wide vibrato
tr - trill
TP - tremolo picking
T - tapping
S - slap
P - pop
< - fade in
^ - brush up
v - brush down
comments
We did not receive enough feedback on this tab! Please rate:
print report bad tab
1 2 3 4 5
1 comment total.
0 reply
KoltonSchredder wrote on February 7 2013, 01:43 am

great job man

I want to post or [tab]
guest
You may want to rate the tab now too:
select rating
Please do not post tabs as comments. Select "correction" instead!