Oops, an error
Loading. Please wait.

Big Wiggly Style Tab

ver1
ver1

Whole song

Interactive

More versions @911Tabs.com
53,611 views 33 this week
15 commentsread comments
1 2 3 4 5
accurate
x 9
Autoscroll
+/-
esc
set tempo
stop
Contributor
Hey! There's an official Ultimate Guitar app which is ideal
for learning songs when you're away from computer. Get the app
WARNING: You are trying to view
                                    content from Ultimate-Guitar.com
                                    in an unauthorized application,
                                    which is prohibited.

                                    Please use an official Ultimate
                                    Guitar Tabs application for iPhone,
                                    iPad or Android to access legitimate
                                    chords, guitar, bass, and drum tabs
                                    from Ultimate-Guitar.com database.

                                    Type "ultimate guitar tabs" in Apple
                                    App Store's or Android Market's
                                    search to find the application.
Title: Big Wiggly Style
Artis: The Devil Wears Prada
Album: With Roots Above And Branches Below
Tabbed by: catalan123
I decided to finally make normal tabs than just making guitar pro tabs all the time.
I have already tabbed this in guitar pro so im just basically transcribing it into 
a normal tablature 
for all the people who don't own guitar pro.

Tuning is in Dropped D.


Guitar 1 & 2 do this section twice
E|------------------------------------------------------------|
B|------------------------------------------------------------|
G|------------------------------------------------------------|
D|------------------------------------------------------------|
A|-0-0--0-0----0----0--------------0-0-0-0-0-0-0-0------------|
D|-0-0--0-0----0----0--------------0-0-0-0-0-0-0-0------------|
   . .  . .    .    .              . . . . . . . .
E|------------------------------------------------------------|
B|------------------------------------------------------------|
G|------------------------------------------------------------|
D|------------------------------------------------------------| 
A|-0-0--0-0----0----0----0----0----0-0-0-0-0-0-0-0------------|
D|-0-0--0-0----0----0----0----0----0-0-0-0-0-0-0-0------------|
   . .  . .    .    .    .    .    . . . . . . . .

Guitar 1 (Left)
E|------------------------------|------------------------------|
B|------------------------------|------------------------------|
G|-7----7----7---10--9--12--10--|-9----10--12----7~----6~------|
D|----0----0--------------------|----0---------0---------------|
A|----.----.--------------------|----.---------.---------------|
D|------------------------------|------------------------------|
  Guitar 2 (Right)
E|--------------------------------|------------------------------|
B|--------------------------------|------------------------------|
G|-10---10---10---14--12--15--14--|-12---14--15----10~----9~-----|
D|----0----0----------------------|----0---------0---------------|
A|----.----.----------------------|----.---------.---------------|
D|--------------------------------|------------------------------|
     
Guitar 1 (Left)
E|------------------------------|-------------------------------|
B|------------------------------|-------------------------------|
G|-7----7----7---10--9--12--10--|-9----10--12-------------------|
D|----0----0--------------------|----0---------0--8------7------|
A|----.----.--------------------|----.---------.--8------7------|
D|------------------------------|-----------------8------7------|
Guitar 2 (Right)
E|--------------------------------|------------------------------|
B|--------------------------------|------------------------------|
G|-10---10---10---14--12--15--14--|-12---14--15------------------|
D|----0----0----------------------|----0---------0--8------7-----|
A|----.----.----------------------|----.---------.--8------7-----|
D|--------------------------------|-----------------8------7-----|


Both Guitars
E|--------------------------------|
B|--------------------------------|
G|--------------------------------|
D|-0------------8--8--7-----------|
A|-0--0-0-0--0--8--8--7-----------|
D|-0--0-0-0--0--8--8--7-----------|
      . . .  .


Guitar 1 (left)
E|---------------------------------------------------------|
B|---------------------------------------------------------|
G|---------------------------------------------------------|
D|-------------------------------------------------10h12---|
A|-0-0-0--0-0-0--7h8p7--0--0-0--0-0--0-0-0--7h8p7----------|
D|-0-0-0--0-0-0---------0--0-0--0-0--0-0-0-----------------|
   . . .  . . .         .  . .  . .  . . .
Guitar 2 (Right)
E|---------------------------------------------------------------|
B|---------------------------------------------------------------|
G|---------------------------------------------------------------|
D|-------------------------------------------------------14h15---|
A|-0-0-0--0-0-0--10h12p10--0--0-0--0-0--0-0-0--10h12p10----------|
D|-0-0-0—-0-0-0------------0--0-0--0-0--0-0-0--------------------|
   . . .  . . .            .  . .  . .  . . .

Guitar 1 (left)
E|----------------------------------------------------------|
B|----------------------------------------------------------|
G|----------------------------------------------------------|
D|----------------------------------------------------------|
A|-0-0-0--0-0-0--7h8p7--0--0-0--0-0--0-0-0---8h10p8--7h8p7--|
D|-0-0-0—-0-0-0---------0--0-0--0-0--0-0-0------------------|
   . . .  . . .         .  . .  . .  . . .
Guitar 2 (Right)
E|----------------------------------------------------------------|
B|----------------------------------------------------------------|
G|----------------------------------------------------------------|
D|----------------------------------------------------------------|
A|-0-0-0--0-0-0--10h12p10--0--0-0--0-0--0-0-0---10h12p10--8h10p8--|
D|-0-0-0--0-0-0------------0--0-0--0-0--0-0-0---------------------|
   . . .  . . .            .  . .  . .  . . .

Guitar 1 (left)
E|---------------------------------------------------------|
B|---------------------------------------------------------|
G|---------------------------------------------------------|
D|-------------------------------------------------10h12---|
A|-0-0-0--0-0-0--7h8p7--0--0-0--0-0--0-0-0--7h8p7----------|
D|-0-0-0--0-0-0---------0--0-0--0-0--0-0-0-----------------|
   . . .  . . .         .  . .  . .  . . .
Guitar 2 (Right)
E|---------------------------------------------------------------|
B|---------------------------------------------------------------|
G|---------------------------------------------------------------|
D|-------------------------------------------------------14h15---|
A|-0-0-0--0-0-0--10h12p10--0--0-0--0-0--0-0-0--10h12p10----------|
D|-0-0-0—-0-0-0------------0--0-0--0-0--0-0-0--------------------|
   . . .  . . .            .  . .  . .  . . .

Guitar 1 (left)
E|----------------------------------------------------|
B|----------------------------------------------------|
G|----------------------------------------------------|
D|----------------------------------------------------|
A|-0-0-0--0-0-0--7h8p7--0--0-0--0-0--0-0-0------------|
D|-0-0-0--0-0-0---------0--0-0--0-0--0-0-0--8*--------|
   . . .  . . .         .  . .  . .  . . .
Guitar 2 (Right)
E|-----------------------------------------------------|
B|-----------------------------------------------------|
G|-----------------------------------------------------|
D|-----------------------------------------------------|
A|-0-0-0--0-0-0--10h12p10--0--0-0--0-0--0-0-0----------|
D|-0-0-0—-0-0-0------------0--0-0--0-0--0-0-0--8*------|
   . . .  . . .            .  . .  . .  . . .


Guitar 1 (left)
E|-------------------------------------------------------|
B|-------------------------------------------------------|
G|-------------------------------------------------------|
D|-------------------------------------------------------|
A|-0-0-0--0-0-0---------0--0-0--0-0--0-0-0--0-0-0-0------|
D|-0-0-0--0-0-0---------0--0-0--0-0--0-0-0--0-0-0-0------|
   . . .  . . .         .  . .  . .  . . .  . . . .
Guitar 2 (Right)
E|-------------------------------------------------------|
B|-------------------------------------------------------|
G|-------------------------------------------------------|
D|-------------------------------------------------------|
A|-0-0-0--0-0-0---------0--0-0--0-0--0-0-0--0-0-0-0------|
D|-0-0-0--0-0-0---------0--0-0--0-0--0-0-0--0-0-0-0------|
   . . .  . . .         .  . .  . .  . . .  . . . .

Guitar 1 (left)
E|---------------------------------------------------------|
B|---------------------------------------------------------|
G|---------------------------------------------------------|
D|---------------------------------------------------------|
A|-0-0-0--0-0-0---------0--0-0--0-0--0-0-0--0-0-0-0--8*----|
D|-0-0-0--0-0-0---------0--0-0--0-0--0-0-0--0-0-0-0--------|
   . . .  . . .         .  . .  . .  . . .  . . . .
Guitar 2 (Right)
E|---------------------------------------------------------|
B|---------------------------------------------------------|
G|---------------------------------------------------------|
D|---------------------------------------------------------|
A|-0-0-0--0-0-0---------0--0-0--0-0--0-0-0--0-0-0-0--------|
D|-0-0-0--0-0-0---------0--0-0--0-0--0-0-0--0-0-0-0----8*--|
   . . .  . . .         .  . .  . .  . . .  . . . .

Guitar 1 (left)
E|-------------------------------------------------------|
B|-------------------------------------------------------|
G|-------------------------------------------------------|
D|-------------------------------------------------------|
A|-0-0-0--0-0-0---------0--0-0--0-0--0-0-0--0-0-0-0------|
D|-0-0-0--0-0-0---------0--0-0--0-0--0-0-0--0-0-0-0------|
   . . .  . . .         .  . .  . .  . . .  . . . .
Guitar 2 (Right)
E|-------------------------------------------------------|
B|-------------------------------------------------------|
G|-------------------------------------------------------|
D|-------------------------------------------------------|
A|-0-0-0--0-0-0---------0--0-0--0-0--0-0-0--0-0-0-0------|
D|-0-0-0--0-0-0---------0--0-0--0-0--0-0-0--0-0-0-0------|
   . . .  . . .         .  . .  . .  . . .  . . . .

Both Guitars
E|---------------------------------------------------------------------|
B|---------------------------------------------------------------------|
G|---------------------------------------------------------------------|
D|---------------------------------------------------8--7--5--0--------|
A|-0-0-0--0-0-0---------0--0-0--0-0--0-0-0--0-0-0-0--8--7--5--0--------|
D|-0-0-0--0-0-0---------0--0-0--0-0--0-0-0--0-0-0-0--8--7--5--0--------|
   . . .  . . .         .  . .  . .  . . .  . . . .


Both Guitars (Look to the sky)
E|-------------|
B|-------------|
G|-------------|
D|-0-----------|
A|-0-----------|
D|-0-----------|
   .

Guitar 1 
Sorry guys I tried so hard to figure out the lead riff on this
part but I just could'nt sorry. If anyone figures it out or 
knows it please post it as a correction or comment. Thanx =)

Guitar 2 (Right)
E|------------------------------------------------------|
B|------------------------------------------------------|
G|------------------------------------------------------|
D|-3----3------5----5------0---0------0----0------------| Repeat 2x
A|-3----3-x14--5----5-x14--0---0-x14--0----0-x14--------|
D|-3----3------5----5------0---0------0----0------------|

1:25
Both Guitars
E|-----------------------|-----------------------|
B|-----------------------|-----------------------|
G|-----------------------|-----------------------|
D|-----------------------|-----------------------| 
A|-0--0-0-0-0------------|---------------0----0--|
D|-0--0-0-0-0------------|---------------0----0--|
   .  . . . .                            .    .     Reapeat 2x
E|-----------------------|-----------------------|
B|-----------------------|-----------------------|
G|-----------------------|-----------------------|
D|-----------------------|------------7---5---3--| 
A|----0-0-0-0----0----0--|----0----0--7---5---3--|
D|----0-0-0-0----0----0--|----0----0--7---5---3--|
      . . . .    .    .       .    .  

1:37
Both Guitars (play this slower)
E|-----------------------|-----------------------|
B|-----------------------|-----------------------|
G|-----------------------|-----------------------|
D|-----------------------|-----------------------| 
A|-0--0-0-0-0------------|---------------0----0--|
D|-0--0-0-0-0------------|---------------0----0--|
   .  . . . .                            .    .     Reapeat 2x
E|-----------------------|-----------------------|
B|-----------------------|-----------------------|
G|-----------------------|-----------------------|
D|-----------------------|------------7---5---3--| 
A|-0--0-0-0-0----0----0--|----0----0--7---5---3--|
D|-0--0-0-0-0----0----0--|----0----0--7---5---3--|
   .  . . . .    .    .       .    .  

Guitar 1 (Left)
E|-------------|
B|-------------|
G|-------------|
D|-8-----------|
A|-8--x32------|
D|-8-----------|
Guitar 2 (Right)
E|------------------------------|
B|------------------------------|
G|------------------------------|
D|-10------14-----12-----17-----|
A|-x--x12--x--x4--x--x8--x--x8--|
D|-8-------12-----10-----15-----|

1:58
Guitar 1 (Left)
E|------------------------------------------------------|
B|------------------------------------------------------|
G|------------------------------------------------------|
D|------------------------------------------------------| 
A|-5---------5p3h5---------8p7h8---------12----10----8--|
D|---0-0-0-0-------0-0-0-0-------0-0-0-0---0-0---0-0----|
     . . . .       . . . .       . . . .   . .   . .
Guitar 2 (Right)
E|------------------------------------------------------|
B|------------------------------------------------------|
G|------------------------------------------------------|
D|-0--------0-0-0---------0-0-0---------0-----0---------| 
A|-0--------0-0-0---------0-0-0---------0-----0------0--|
D|-0--------0-0-0---------0-0-0---------0-----0------0--|
   .        . . .         . . .         .     .      .

Guitar 1 (Left)
E|------------------------------------------------------|
B|------------------------------------------------------|
G|------------------------------------------------------|
D|-------------10---------------------------------------| 
A|--------------------8-----10-----10-----12-----10-----|
D|-0-0-0-0-0-0----0-0---0-0----0-0----0-0----0-0--------|
   . . . . . .    . .   . .    . .    . .    . .
Guitar 2 (Right)
E|-------------|-------------|
B|-------------|-------------|
G|-------------|-------------|
D|-8-----------|-------------|
A|-8-----------|-(pickslide)-|
D|-8-----------|-------------|

2:03
Guitar 1 (Left)
E|------------------------------------------------------|
B|------------------------------------------------------|
G|------------------------------------------------------|
D|------------------------------------------------------| 
A|-5---------5p3h5---------8p7h8---------12----10----8--|
D|---0-0-0-0-------0-0-0-0-------0-0-0-0---0-0---0-0----|
     . . . .       . . . .       . . . .   . .   . .
Guitar 2 (Right)
E|-----------------------------------------------------------|
B|-----------------------------------------------------------|
G|-----------------------------------------------------------|
D|-----------------------------------------------------------| 
A|-8---------8p7h8---------12p10h12--------15------13----12--|
D|---0-0-0-0-------0-0-0-0----------0-0-0-0----0-0---0-0-----|
     . . . .       . . . .          . . . .    . .   . .

Guitar 1 (Left)
E|------------------------------------------------------|
B|------------------------------------------------------|
G|------------------------------------------------------|
D|-------------10---------------------------------------| 
A|--------------------8-----10-----10-----12-----10-----|
D|-0-0-0-0-0-0----0-0---0-0----0-0----0-0----0-0--------|
   . . . . . .    . .   . .    . .    . .    . .
Guitar 2 (Right)
E|-------------------------------|
B|-------------------------------|
G|-------------------------------|
D|------8----8---------5----5----|
A|------8----8---------5----5----|
D|-8-x8-8----8----5-x8-5----5----|
   .              .

Guitar 1 (Left)
E|------------------------------------------------------|
B|------------------------------------------------------|
G|------------------------------------------------------|
D|------------------------------------------------------| 
A|-5---------5p3h5---------8p7h8---------12----10----8--|
D|---0-0-0-0-------0-0-0-0-------0-0-0-0---0-0---0-0----|
     . . . .       . . . .       . . . .   . .   . .
Guitar 2 (Right)
E|-----------------------------------------------------------|
B|-----------------------------------------------------------|
G|-----------------------------------------------------------|
D|-----------------------------------------------------------| 
A|-8---------8p7h8---------12p10h12--------15------13----12--|
D|---0-0-0-0-------0-0-0-0----------0-0-0-0----0-0---0-0-----|
     . . . .       . . . .          . . . .    . .   . .

Guitar 1 (Left)
E|------------------------------------------------------|
B|------------------------------------------------------|
G|------------------------------------------------------|
D|-------------10---------------------------------------| 
A|--------------------8-----10-----10-----12------------|
D|-0-0-0-0-0-0----0-0---0-0----0-0----0-0---------------|
   . . . . . .    . .   . .    . .    . .    
Guitar 2 (Right)
E|-------------------------------|
B|-------------------------------|
G|-------------------------------|
D|------8----8---------7---------|
A|------8----8---------7---------|
D|-8-x8-8----8----7-x8-7---------|
   .              .

2:16
Guitar 1 (Left)
E|------------------------------------------------------|
B|------------------------------------------------------|
G|------------------------------------------------------|
D|------------------------------------------------------| 
A|-5---------5p3h5---------8p7h8---------12----10----8--|
D|---0-0-0-0-------0-0-0-0-------0-0-0-0---0-0---0-0----|
     . . . .       . . . .       . . . .   . .   . .
Guitar 2 (Right)
E|------------------------------------------------------|
B|------------------------------------------------------|
G|------------------------------------------------------|
D|------------------------------------------------------| 
A|-0--------0-0-0---------0-0-0-------------0-0-0-0-0-0-|
D|-0--------0-0-0---------0-0-0-------------0-0-0-0-0-0-|
   .        . . .         . . .             . . . . . .       

Guitar 1 (Left)
E|----------------------------------------------------------|
B|----------------------------------------------------------|
G|----------------------------------------------------------|
D|----------------------------------------------------------| 
A|-------------8p7h8----------7p5h7---------5p3h5-----8*----|
D|-0-0-0-0-0-0-------0-0-0-0--------0-0-0-0-------0-0-------|
   . . . . . .       . . . .        . . . .       . .
Guitar 2 (Right)                                               Repeat 2x
E|------------------------------------------------------|
B|------------------------------------------------------|
G|------------------------------------------------------|
D|------------------------------------------------------| 
A|-8-8--------8-8-8-8--------8-8------------------------|
D|-8-8--------8-8-8-8--------8-8--5-x16-----------------|
   . .        . . . .        . .  .        

2:29
Guitar 1 (Left)
E|-----------------------------------------------------------------|
B|-----------------------------------------------------------------|
G|-----------------------------------------------------------------|
D|-----------------------------------------------------------------| 
A|-----------------------------------------5-5-5-5---------5-5-5-5-|
D|-8-8-8-8-8-8-8-8-8-8-8-8-7-7-7-7-5-5-5-5---------5-5-5-5---------|
Guitar 2 (Right)
E|-----------------------------------------------------------------|
B|-----------------------------------------------------------------|
G|-----------------------------------------------------------------|
D|-----------------------------------------------------------------| 
A|-----------------------------------------8-8-8-8---------8-8-8-8-|
D|-8-8-8-8-8-8-8-8-8-8-8-8-7-7-7-7-5-5-5-5---------5-5-5-5---------|

Guitar 1 (Left)
E|------------------------------------------------------------------------|
B|------------------------------------------------------------------------|
G|------------------------------------------------------------------------|
D|------------------------------------------------------------------------| 
A|-------------------------------------------------12-12-12-12-------10-x4|
D|-8-8-8-8-8-8-8-8-8-8-8-8-10-10-10-10-12-12-12-12-------------10-x4------|
Guitar 2 (Right)
E|------------------------------------------------------------------------|
B|------------------------------------------------------------------------|
G|------------------------------------------------------------------------|
D|------------------------------------------------------------------------| 
A|-------------------------------------------------15-15-15-15-------13-x4|
D|-8-8-8-8-8-8-8-8-8-8-8-8-10-10-10-10-12-12-12-12-------------10-x4------|

Guitar 1 (Left)
E|-----------------------------------------------------------------|
B|-----------------------------------------------------------------|
G|-----------------------------------------------------------------|
D|-----------------------------------------------------------------| 
A|-----------------------------------------5-5-5-5---------5-5-5-5-|
D|-8-8-8-8-8-8-8-8-8-8-8-8-7-7-7-7-5-5-5-5---------5-5-5-5---------|
Guitar 2 (Right)
E|-----------------------------------------------------------------|
B|-----------------------------------------------------------------|
G|-----------------------------------------------------------------|
D|-----------------------------------------------------------------| 
A|-----------------------------------------8-8-8-8---------8-8-8-8-|
D|-8-8-8-8-8-8-8-8-8-8-8-8-7-7-7-7-5-5-5-5---------5-5-5-5---------|

Guitar 1 (Left)
E|------------------------------------------------------------------------|
B|------------------------------------------------------------------------|
G|------------------------------------------------------------------------|
D|------------------------------------------------------------------------| 
A|-------------------------------------------------12-12-12-12-------15-x4|
D|-8-8-8-8-8-8-8-8-8-8-8-8-10-10-10-10-12-12-12-12-------------10-x4------|
Guitar 2 (Right)
E|------------------------------------------------------------------------|
B|------------------------------------------------------------------------|
G|------------------------------------------------------------------------|
D|------------------------------------------------------------------------| 
A|-------------------------------------------------15-15-15-15-------15-x4|
D|-8-8-8-8-8-8-8-8-8-8-8-8-10-10-10-10-12-12-12-12-------------10-x4------|

Guitar 1 (Left)
E|-----------------------------------------------------------------|
B|-----------------------------------------------------------------|
G|-----------------------------------------------------------------|
D|-----------------------------------------------------------------| 
A|-----------------------------------------5-5-5-5---------5-5-5-5-|
D|-8-8-8-8-8-8-8-8-8-8-8-8-7-7-7-7-5-5-5-5---------5-5-5-5---------|
Guitar 2 (Right)
E|-----------------------------------------------------------------|
B|-----------------------------------------------------------------|
G|-----------------------------------------------------------------|
D|-----------------------------------------------------------------| 
A|-----------------------------------------8-8-8-8---------8-8-8-8-|
D|-8-8-8-8-8-8-8-8-8-8-8-8-7-7-7-7-5-5-5-5---------5-5-5-5---------|

Guitar 1 (Left)
E|-----------------------------------------------------------------|
B|-----------------------------------------------------------------|
G|-----------------------------------------------------------------|
D|-----------------------------------------------------------------| 
A|-------------------------------------------------12~---10~-------|
D|-8-8-8-8-8-8-8-8-8-8-8-8-10-10-10-10-12-12-12-12-----------------|
Guitar 2 (Right)
E|------------------------------------------------------------------|
B|------------------------------------------------------------------|
G|------------------------------------------------------------------|
D|------------------------------------------------------------------| 
A|-------------------------------------------------8~---7~----------|
D|-8-8-8-8-8-8-8-8-8-8-8-8-10-10-10-10-12-12-12-12------------------|

2:53
Guitar 1 (Left)
E|-----------------------------------------------------------------| --
B|-----------------------------------------------------------------|  |
G|-----------------------------------------------------------------|  |
D|-----------------------------------------------------------------|  |
A|-5-5-5-5-5-5-5-5-5-5-5-5-5-5-5-5-5-5-5-5-5-5-5-5-7-7-7-7-8-8-8-8-|  | 
D|-----------------------------------------------------------------|  | 
Guitar 2 (Right)                                                      |
E|-------------|                                                      |
B|-------------|                                                      |
G|-------------|                                                      |
D|-0-----------|                                                      |
A|-0-----------|                                                      |
D|-0-----------|                                                      |
                                                                      |
Guitar 1 (Left)                                                       |
E|-------------------------------------------------|                  |
B|-------------------------------------------------|                  |
G|-------------------------------------------------|                  |
D|-------------------------------------------------|                  |
A|-7-7-7-7-7-7-7-7-7-7-7-7-7-7-7-7-7-7-7-7-7-7-7-7-|                  |
D|-------------------------------------------------|                  |
Guitar 2 (Right)                                                      |
E|-------------|                                                      |
B|-------------|                                                      |
G|-------------|                                                      |
D|-3-----------|                                                      |
A|-3-----------|                                   Repeat all of this |-2x
D|-3-----------|                                                      |
                                                                      |
Guitar 1 (Left)                                                       |
E|------------------------------|                                     |
B|------------------------------|                                     |
G|------------------------------|                                     |
D|------------------------------|                                     |
A|-12-x24-10-10-10-10-8-8-10-10-|                                     |
D|------------------------------|                                     |
Guitar 2 (Right)                                                      |
E|-------------|                                                      |
B|-------------|                                                      |
G|-------------|                                                      |
D|-8-----------|                                                      |
A|-8-----------|                                                      |
D|-8-----------|                                                      |
                                                                      |
Guitar 1 (Left)                                                       |
E|---------|                                                          |
B|---------|                                                          |
G|---------|                                                          |
D|---------|                                                          |
A|-15-x24--|                                                          |
D|---------|                                                          |
Guitar 2 (Right)                                                      |
E|-------------|-------------------|                                   |
B|-------------|-------------------|                                   |
G|-------------|-------------------|                                   |
D|-5-----------|-5-----------------| on the second time                |
A|-5-----------|-5-----5-x14-------| play this part like this.         |
D|-5-----------|-5-----5-----------|------------------------------------
                       .

3:18
Guitar 1 (Left)                                           
E|-------------------------------------------------|
B|-------------------------------------------------|
G|-------------------------------------------------|
D|-------------------------------------------------|
A|-17-17-17-17-17-17-20-20-20-20-20-20-19-x20------|
D|-------------------------------------------------|
Guitar 2 (Right)
E|-----------------|
B|-----------------|
G|-----------------|
D|-0---------------|
A|-0---0-x12--5p3--|
D|-0---0-----------|
       .

Guitar 1 (Left)                                           
E|-------------------------------------------------|
B|-------------------------------------------------|
G|-------------------------------------17-x20------|
D|-------------------15-15-15-15-15-15-------------|
A|-15-15-15-15-15-15-------------------------------|
D|-------------------------------------------------|
Guitar 2 (Right)
E|--------------------------|
B|--------------------------|
G|--------------------------|
D|--------------------------|
A|-3~----0-x9--3h5--0--3h5--|
D|-------0----------0-------|
         .          .

Guitar 1 (Left)                                           
E|-------------------------------------------------|
B|-------------------------------------------------|
G|-------------------------------------------------|
D|-------------------------------------------------|
A|-17-17-17-17-17-17-20-20-20-20-20-20-19-x20------|
D|-------------------------------------------------|
Guitar 2 (Right)
E|------------------|
B|------------------|
G|------------------|
D|------------------|
A|-3~---0-x12--5p3--|
D|------0-----------|
        .

Guitar 1 (Left)                                           
E|-----------------|
B|-----------------|
G|--19-x16--17x16--|
D|-----------------|
A|-----------------|
D|-----------------|
Guitar 2 (Right)
E|------------------|
B|------------------|
G|------------------|
D|------------5-----|
A|-3~---5-x6--5-x8--|
D|------5-----5-----|
        .

3:31 Repeat this part twice from here...

Guitar 1 (Left)                                           
E|-------------------------------------------------13-x16--|
B|--------------------15-15-15-15-15-15--------------------|
G|--17-17-17-17-17-17-------------------14-14-14-14--------|
D|---------------------------------------------------------|
A|---------------------------------------------------------|
D|---------------------------------------------------------|
Guitar 2 (Right)
E|-------------------------------------------------|
B|-------------------------------------------------|
G|-------------------------------------------------|
D|-7--7--7--7--7--7--7--7--7--7--7--7--7--7--7--7--|
A|-x--x--x--x--x--x--x--x--x--x--x--x--x--x--x--x--|
D|-5--5--5--5--5--5--5--5--5--5--5--5--5--5--5--5--|

Guitar 1 (Left)                                           
E|-------------------------------------------------15-x16--|
B|--------------------15-15-15-15-15-15--------------------|
G|--17-17-17-17-17-17-------------------14-14-14-14--------|
D|---------------------------------------------------------|
A|---------------------------------------------------------|
D|---------------------------------------------------------|
Guitar 2 (Right)
E|-------------------------------------------------|
B|-------------------------------------------------|
G|-------------------------------------------------|
D|-10-10-10-10-10-10-10-10-10-10-10-10-10-10-10-10-|
A|-x--x--x--x--x--x--x--x--x--x--x--x--x--x--x--x--|
D|-8--8--8--8--8--8--8--8--8--8--8--8--8--8--8--8--|

Guitar 1 (Left)                                           
E|-------------------------------------------------13-x16--|
B|--------------------15-15-15-15-15-15--------------------|
G|--17-17-17-17-17-17-------------------14-14-14-14--------|
D|---------------------------------------------------------|
A|---------------------------------------------------------|
D|---------------------------------------------------------|
Guitar 2 (Right)
E|-------------------------------------------------|
B|-------------------------------------------------|
G|-------------------------------------------------|
D|-7--7--7--7--7--7--7--7--7--7--7--7--7--7--7--7--|
A|-x--x--x--x--x--x--x--x--x--x--x--x--x--x--x--x--|
D|-5--5--5--5--5--5--5--5--5--5--5--5--5--5--5--5--|

Guitar 1 (Left) 
E|--17-x16--15-x16--|
B|------------------|
G|------------------|
D|------------------|
A|------------------|
D|------------------|
Guitar 2 (Right)
E|-------------------------------------------------|
B|-------------------------------------------------|
G|-------------------------------------------------|
D|-12-12-12-12-12-12-12-12/14-14-14-14-14-14-14-14-|
A|-x--x--x--x--x--x--x--x--x--x--x--x--x--x--x--x--|
D|-10-10-10-10-10-10-10-10/12-12-12-12-12-12-12-12-|

....to here.

Outro: Repeat the following twice.

Guitar 1 (Left) 
E|----------------------|-13-------------------|
B|--------15------------|----------------------|
G|-17-------------14----|----------------------|
D|----------------------|----------------------|
A|----------------------|----------------------|
D|----------------------|----------------------|
Guitar 2 (Right)
E|-------------|
B|-------------|
G|-------------|
D|-0-----------|
A|-0-----------|
D|-0-----------|
                                                    
Guitar 1 (Left) 
E|----------------------|-15-------------------|
B|--------15------------|----------------------|
G|-17-------------14----|----------------------|
D|----------------------|----------------------|
A|----------------------|----------------------|
D|----------------------|----------------------|
Guitar 2 (Right)
E|----------------|
B|----------------|
G|----------------|
D|-let-it-Ring----|
A|----------------|
D|----------------|

Ok im done.




comments
print report bad tab
15 comments total. Showing first comments.
+2 reply
guitarmaniac182 wrote on July 1 2009, 04:20 pm

just to correct one of the lyrics
where it says
"blood to the sky" its actually "look to the the sky"
thats it. great tab.

0 reply
wild577mxracer wrote on July 1 2009, 09:44 pm

um the break down and pre break down is like this!
E|-----------------------|-----------------------|
B|-----------------------|-----------------------|
G|-----------------------|-----------------------|
D|-----------------------|-----------------------|
A|-0--0-0-0-0------------|---------------0----0--|
D|-0--0-0-0-0------------|---------------0----0--|
. . . . . . . Reapeat 2x
E|-----------------------|-----------------------|
B|-----------------------|-----------------------|
G|-----------------------|-----------------------|
D|-----------------------|------------7---5---3--|
A|----0-0-0-0----0----0--|----0----0--7---5---3--|
D|----0-0-0-0----0----0--|----0----0--7---5---3--|

+1 reply
catalan123 wrote on July 2 2009, 05:08 pm

^^ haha youre right thanks for that ill fix it now

I want to post or [tab]
guest
You may want to rate the tab now too:
select rating
Please do not post tabs as comments. Select "correction" instead!