Oops, an error
Loading. Please wait.

Outnumbered Tab

ver3
ver3

Whole song

More versions @911Tabs.com
396 views 3 this week
no commentswrite comment
1 2 3 4 5
accurate
x 4
Autoscroll
+/-
esc
set tempo
stop
Contributor
WARNING: You are trying to view
                                    content from Ultimate-Guitar.com
                                    in an unauthorized application,
                                    which is prohibited.

                                    Please use an official Ultimate
                                    Guitar Tabs application for iPhone,
                                    iPad or Android to access legitimate
                                    chords, guitar, bass, and drum tabs
                                    from Ultimate-Guitar.com database.

                                    Type "ultimate guitar tabs" in Apple
                                    App Store's or Android Market's
                                    search to find the application.
THE DEVIL WEARS PRADA
OUTNUMBERED

B-F#-B-E-G#-C#

TABBED BY andherembrace



0:36

GT.1 (MELODY)
--------------------------------------------------------|
--------------------------------------------------------|
--------------------------------------------------------|
--------------------------------------------------------|
-5-5-4-4-8-8-7-7-5--5-5-4-4-8-8-7-7-5-------------------|
---------------------------------------8-8-7-7-5-5-4-4--|

GT.2 RYTHM
--------------------------------------------------------|
--------------------------------------------------------|
--------------------------------------------------------|
--------------------------------------------------------|
-0-0-0-0-0-0-0-0-0--0-0-0-0-0-0-0-0-0--5-5-4-4----------|
-0-0-0-0-0-0-0-0-0--0-0-0-0-0-0-0-0-0----------8-8-7-7--|
 * * * * * * * * *  * * * * * * * * *


GT.1 (MELODY)
---------------------------------------------------------------------|
---------------------------------------------------------------------|
---------------------------------------------------------------------|
----------------------------7-7-----8-8-------10-10-------10-10-12-12|
-5-5-4-4-8-8-7-7-5--5-5-4-4-----8-8-----10-10-------12-12------------|
---------------------------------------------------------------------|

GT.2 RYTHM
---------------------------------------------------------------------|
---------------------------------------------------------------------|
---------------------------------------------------------------------|
---------------------------------------------------------------------|
-0-0-0-0-0-0-0-0-0--0-0-0-0-8-------------------1--------------------|
-0-0-0-0-0-0-0-0-0--0-0-0-0-8------------------\1--------------------|
 * * * * * * * * *  * * * *


GT.1 (MELODY)
--------------------------------------------------------|
--------------------------------------------------------|
--------------------------------------------------------|
--------------------------------------------------------|
-5-5-4-4-8-8-7-7-5--5-5-4-4-8-8-7-7-5-------------------|
----------------------------------------8-8-7-7-5-5-4-4-|

GT.2 RYTHM
--------------------------------------------------------|
--------------------------------------------------------|
--------------------------------------------------------|
-0---------------0--0---------------0-------------------|
-0---------------0--0---------------0---5-5-4-4---------|
-0---------------0|-0---------------0|----------8-8-7-7-|




GT.1 (MELODY)
---------------------------------------------------------------------|
---------------------------------------------------------------------|
----------------------------------------------------------------ph---|
----------------------------7-7-----8-8-------10-10-------10-10-12---|
-5-5-4-4-8-8-7-7-5--5-5-4-4-----8-8-----10-10-------12-12------------|
---------------------------------------------------------------------|

GT.2 RYTHM
----------------------------------------------------------------------|
----------------------------------------------------------------------|
----------------------------------------------------------------------|
-0-------0-------0-------0---8-------------------1--------------------|
-0-------0-------0-------0---8-------------------1--------------------|
-0-------0-------0-------0---8------------------\1--------------------|


0:51

GT.1 (MELODY)
-----------------------------------------|
-----------------------------------------|
-----------------------------------------|
-----------------------------------------|
5554448887775---5554448887775------------|
-------------------------------8887-5554-|
                               **** ****
GT.2 RYTHM
-----------------------------------------|
-----------------------------------------|
-----------------------------------------|
-----------------------------------------|
0000000000000--0000000000000--0000-0000--|
0000000000000--0000000000000--0000-0000--|
*************  *************  **** ****


GT.1 (MELODY)
----------------------------------------------------------------|
----------------------------------------------------------------|
----------------------------------------------------------------|
-------------------------7-7-----8-8-------10-10-------10--12---|
5554448887775--5-5-4-4-------8-8-----10-10-------12-12----------|
----------------------------------------------------------------|

GT.2 RYTHM
----------------------------------------------------------------|
----------------------------------------------------------------|
----------------------------------------------------------------|
--------------------------8-------------------1-----------------|
0000000000000--0-0-0-0----8-------------------1-----------------|
0000000000000--0-0-0-0----8-----------------\-1-----------------|
*************  * * * *




GT.1 (MELODY)
---------------------------------------------------|
---------------------------------------------------|
---------------------------------------------------|
---------------------------------------------------|
55554444888877775-55554444888877775----------------|
---------------------------------------8887-5554---|
                                       **** ****
GT.2 RYTHM
---------------------------------------------------|
---------------------------------------------------|
---------------------------------------------------|
---------------------------------------------------|
-00000000000000----00000000000000------0000-0000---|
-00000000000000----00000000000000------0000-0000---|
 **************    **************      **** ****


GT.1 (MELODY)
----------------------------------------------------------------|
----------------------------------------------------------------|
----------------------------------------------------------------|
------------------------7-7-----8-8-------10-10-------10--12----|
5554448887775---5-5-4-4-----8-8-----10-10-------12-12----------0|
---------------------------------------------------------------0|
                                                               *
GT.2 RYTHM
----------------------------------------------------------------|
----------------------------------------------------------------|
----------------------------------------------------------------|
------------------------8-------------------1-------------------|
00000000000000--0-0-0-0-8-------------------1------------------0|
00000000000000--0-0-0-0-8----------------\--1------------------0|
**************  * * * *                                        *


1:06

B
------------------------------------------------------|
------------------------------------------------------|
------------------------------------------------------|
------------------------------------------------------|
-000000000-----0-000-000-000--000000000--000000000----|
-000000000-----0-000-000-000--000000000--000000000----|
 *********     * *** *** ***  *********  *********

---------------------------------------------------------|
---------------------------------------------------------|
---------------------------------------------------------|
----------------------------------------------------8--1-|
-000000000-----0-000-000-000--000000000--000000000--8--1-|
-000000000-----0-000-000-000--000000000--000000000--8-\1-|
 *********     * *** *** ***  *********  *********
                                                 s

1:21

B
----------------------------------------------------------------------------|
----------------------------------------------------------------------------|
----------------------------------------------------------------------------|
---------------------------------------------------------------------/\-PH~-|
---8-7----8-7----7----7-8----8----15------5-4-----------7----5-4----4740-5--|
88-8-8-88-8-8-88-8-88-8-8-88-8-88-15\--00-----00-8-7-00---00-----00---------|
**     **     **   **     **   **      **     **     **   **     **

GT.1 L
---------------------------------------------------------------------------|
---------------------------------------------------------------------------|
---------------------------------------------------------------------------|
---------------------------------------------------------------------/\-PH~|
---8-7----8-7----7----7-8----8----15------7-4----5-4----7----8-7----7870-5-|
88-8-8-88-8-8-88-8-88-8-8-88-8-88-15\--00-----00-----00---00-----00--------|
**     **     **   **     **   **      **     **     **   **     **
GT.2 R
----------------------------------------------------------------------------|
----------------------------------------------------------------------------|
----------------------------------------------------------------------------|
---------------------------------------------------------------------/\-PH~-|
---8-7----8-7----7----7-8----8----15------7-4-----------4----5-4----4740-5--|
88-8-8-88-8-8-88-8-88-8-8-88-8-88-15\--00-----00-8-7-00---00-----00---------|
**     **     **   **     **   **      **     **     **   **     **

GT.1 L
---------------------------------------|
---------------------------------------|
---------------------------------------|
------------------------------/\-PH~---|
---8-7----5-4----7----8-7----7870-5----|
00-----00-----00---00-----00-----------|
**     **     **   **     **
GT.2 R
---------------------------------------|
---------------------------------------|
---------------------------------------|
------------------------------/\-PH~---|
---5-4-----------4----5-4----4740-5----|
00-----00-8-7-00---00-----00-----------|
**     **     **   **     **


1:38

L
---------------------------------------------------------------------------|
---------------------------------------------------------------------------|
10101010101010101010101099997777777766666666-------------------------------|
-8-8-8-8-8-8-8-8-8-8-8-877775555555544444444--------------------------8-7--|
-8-8-8-8-8-8-8-8-8-8-8-877775555555544444444-----------------------------10|
-8-8-8-8-8-8-8-8-8-8-8-877775555555544444444-0--10/12-12~-0--10/12-12~-----|
R
----------------------------------------------------------------------------|
----------------------------------------------------------------------------|
10101010101010101010101099997777777766666666--------------------------------|
-8-8-8-8-8-8-8-8-8-8-8-877775555555544444444--------------------------------|
-8-8-8-8-8-8-8-8-8-8-8-877775555555544444444--------------------------10-8-7|
-8-8-8-8-8-8-8-8-8-8-8-877775555555544444444-0--10/12-12~-0--10/12-12~------|

L
----------------------------------------------------------------------------|
----------------------------------------------------------------------------|
10101010101010101010101099997777777766666666--------------------------------|
-8-8-8-8-8-8-8-8-8-8-8-877775555555544444444---------------------------8-7--|
-8-8-8-8-8-8-8-8-8-8-8-877775555555544444444------------------------------10|
-8-8-8-8-8-8-8-8-8-8-8-877775555555544444444-0--10/12-12~-0--10/12-12~------|
R
----------------------------------------------------------------------------|
----------------------------------------------------------------------------|
10101010101010101010101099997777777766666666--------------------------------|
-8-8-8-8-8-8-8-8-8-8-8-877775555555544444444--------------------------------|
-8-8-8-8-8-8-8-8-8-8-8-877775555555544444444--------------------------10-8-7|
-8-8-8-8-8-8-8-8-8-8-8-877775555555544444444-0--10/12-12~-0--10/12-12~------|


L
----------------------------------------------------------------------------|
----------------------------------------------------------------------------|
10101010101010101010101099997777777766666666--------------------------------|
-8-8-8-8-8-8-8-8-8-8-8-877775555555544444444---------------------------8-7--|
-8-8-8-8-8-8-8-8-8-8-8-877775555555544444444------------------------------10|
-8-8-8-8-8-8-8-8-8-8-8-877775555555544444444-0--10/12-12~-0--10/12-12~------|

R
----------------------------------------------------------------------------|
----------------------------------------------------------------------------|
10101010101010101010101099997777777766666666--------------------------------|
-8-8-8-8-8-8-8-8-8-8-8-877775555555544444444--------------------------------|
-8-8-8-8-8-8-8-8-8-8-8-877775555555544444444--------------------------10-8-7|
-8-8-8-8-8-8-8-8-8-8-8-877775555555544444444-0--10/12-12~-0--10/12-12~------|



2:03

GT1 R
----------------------------------------------------------------------------|
----------------------------------------------------------------------------|
10101010101010101010101099997777777766666666--------------------------------|
-8-8-8-8-8-8-8-8-8-8-8-877775555555544444444--------------------------------|
-8-8-8-8-8-8-8-8-8-8-8-877775555555544444444---------------------------0-0-0|
-8-8-8-8-8-8-8-8-8-8-8-877775555555544444444-0--10/12-12~-0--10/12-12~-0-0-0|
                                                                       * * *
GT2
---------------------------------------------------------------------|
---------------------------------------------------------------------|
---------------------------------------------------------------------|
-88888888888877775555555577777777------------------------------------|
-88888888888877775555555577777777--0---------------------------0-0-0-|
-88888888888877775555555577777777--0--|------------------------0-0-0-|
                                                               * * *

GT1 R
-------------------------------------|
-------------------------------------|
-------------------------------------|
-------------------------------------|
-------------------------------0-0-0-|
---0--10/12-12~---0--10/12-12~-0-0-0-|
                               * * *
GT2
-------------------------------------|
-------------------------------------|
-------------------------------------|
-------------------------------------|
---0---------------------------0-0-0-|
---0--|------------------------0-0-0-|
                               * * *




B
-----------------------------------------------------------------------|
-----------------------------------------------------------------------|
-----------------------------------------------------------------------|
------------------------------1-2-3-2---------------------------1-2-3-2|
-0---------8----------4-------X-X-X-X----0---------8--------11--X-X-X-X|
-0---------8----------4-------1-2-3-2----0---------8--------11--1-2-3-2|
                              * * * *                           * * * *

---------------------------------------------------------------|
---------------------------------------------------------------|
---------------------------------------------------------------|
------------------------------1-2-3-2--------------------------|
-0---------8----------4-------X-X-X-X----0---------8--------11-|
-0---------8----------4-------1-2-3-2----0---------8--------11-|
                              * * * *



2:39

--------------------------------------------------------------|
------------------------------------------------------5H------|
------------------------------------------------------5H------|
-1-2-3-2-1-1-0-1--1-1--1-1----1-2-3-2-1-1-0-1--1-1-1--5H------|
-X-X-X-X-X-1-0-X--X-X--X-X----X-X-X-X-X-1-0-X--X-X-X-----00---|
-1-2-3-2-1-1-1-1--1-1--1-1----1-2-3-2-1-1-1-1--1-1-1-----00---|
 * * * * *   * *  * *  * *    * * * * *   * *  * * *     **

--------------------------------------------------------------|
--------------------------------------------------------------|
--------------------------------------------------------------|
-1-2-3-2-1-1-0-1--1-1--1-1----1-2-3-2-1-1-0-1--1-1-1-3--------|
-X-X-X-X-X-1-0-X--X-X--X-X----X-X-X-X-X-1-0-X--X-X-X-3----PH)-|
-1-2-3-2-1-1-1-1--1-1--1-1----1-2-3-2-1-1-1-1--1-1-1-3-0-3----|
 * * * * *   * *  * *  * *    * * * * *   * *  * * *   *



2:53

GT.1 (MELODY)
--------------------------------------------------------|
--------------------------------------------------------|
--------------------------------------------------------|
--------------------------------------------------------|
-5-5-4-4-8-8-7-7-5--5-5-4-4-8-8-7-7-5-------------------|
---------------------------------------8-8-7-7-5-5-4-4--|

GT.2 RYTHM
--------------------------------------------------------|
--------------------------------------------------------|
--------------------------------------------------------|
--------------------------------------------------------|
-0-0-0-0-0-0-0-0-0--0-0-0-0-0-0-0-0-0--5-5-4-4----------|
-0-0-0-0-0-0-0-0-0--0-0-0-0-0-0-0-0-0----------8-8-7-7--|
 * * * * * * * * *  * * * * * * * * *

GT.1 (MELODY)
---------------------------------------------------------------------|
---------------------------------------------------------------------|
---------------------------------------------------------------------|
----------------------------7-7-----8-8-------10-10-------10---12----|
-5-5-4-4-8-8-7-7-5--5-5-4-4-----8-8-----10-10-------12-12------------|
---------------------------------------------------------------------|

GT.2 RYTHM
---------------------------------------------------------------------|
---------------------------------------------------------------------|
---------------------------------------------------------------------|
---------------------------------------------------------------------|
-0-0-0-0-0-0-0-0-0--0-0-0-0-8-------------------1--------------------|
-0-0-0-0-0-0-0-0-0--0-0-0-0-8------------------\1--------------------|
 * * * * * * * * *  * * * *




GT.1 (MELODY)
--------------------------------------------------------|
--------------------------------------------------------|
--------------------------------------------------------|
--------------------------------------------------------|
-5-5-4-4-8-8-7-7-5--5-5-4-4-8-8-7-7-5-------------------|
----------------------------------------8-8-7-7-5-5-4-4-|

GT.2 RYTHM
--------------------------------------------------------|
--------------------------------------------------------|
--------------------------------------------------------|
-0---------------0--0---------------0-------------------|
-0---------------0--0---------------0---5-5-4-4---------|
-0---------------0|-0---------------0|----------8-8-7-7-|


GT.1 (MELODY)
-------------------------------------------------------------------|
-------------------------------------------------------------------|
-------------------------------------------------------------------|
----------------------------7-7-----8-8-------10-10-------10--12---|
-5-5-4-4-8-8-7-7-5--5-5-4-4-----8-8-----10-10-------12-12----------|
-------------------------------------------------------------------|


B
----------------------------------------------------------------------------|
----------------------------------------------------------------------------|
----------------------------------------------------------------------------|
----------------------------------------------------------------------------|
---)------------)-------------)----)-----)------------)-------------)----)--|
-11--0|-0|-0|-11--0|-0|--0|-11-0|-8-0|-11--0|-0|-0|-11--0|-0|--0|-11-0|-8--0|
                               *    *                                *     *
 L
----------------------------------------------------------------------------|
----------------------------------------------------------------------------|
----------------------------------------------------------------------------|
----------------------------------------------------------------------------|
---)------------)-------------)----)-----)------------)-------------)----)--|
-14--0|-0|-0|-14--0|-0|--0|-14-0|11-0|-14--0|-0|-0|-14--0|-0|--0|-14-0|11--0|
                             *    *                                *     *
R
----------------------------------------------------------------------------|
----------------------------------------------------------------------------|
----------------------------------------------------------------------------|
----------------------------------------------------------------------------|
---)------------)-------------)----)-----)------------)-------------)----)--|
-11--0|-0|-0|-11--0|-0|--0|-11-0|-8-0|-11--0|-0|-0|-11--0|-0|--0|-11-0|-8--0|
                               *    *                                *     *

L
----------------------------------------------------------------------------|
----------------------------------------------------------------------------|
10101010101010101010101099997777777766666666--------------------------------|
-8-8-8-8-8-8-8-8-8-8-8-877775555555544444444---------------------------8-7--|
-8-8-8-8-8-8-8-8-8-8-8-877775555555544444444------------------------------10|
-8-8-8-8-8-8-8-8-8-8-8-877775555555544444444-0--10/12-12~-0--10/12-12~------|
R
----------------------------------------------------------------------------|
----------------------------------------------------------------------------|
10101010101010101010101099997777777766666666--------------------------------|
-8-8-8-8-8-8-8-8-8-8-8-877775555555544444444--------------------------------|
-8-8-8-8-8-8-8-8-8-8-8-877775555555544444444--------------------------10-8-7|
-8-8-8-8-8-8-8-8-8-8-8-877775555555544444444-0--10/12-12~-0--10/12-12~------|

L
----------------------------------------------------------------------------|
----------------------------------------------------------------------------|
10101010101010101010101099997777777766666666--------------------------------|
-8-8-8-8-8-8-8-8-8-8-8-877775555555544444444---------------------------8-7--|
-8-8-8-8-8-8-8-8-8-8-8-877775555555544444444------------------------------10|
-8-8-8-8-8-8-8-8-8-8-8-877775555555544444444-0--10/12-12~-0--10/12-12~------|
R
----------------------------------------------------------------------------|
----------------------------------------------------------------------------|
10101010101010101010101099997777777766666666--------------------------------|
-8-8-8-8-8-8-8-8-8-8-8-877775555555544444444--------------------------------|
-8-8-8-8-8-8-8-8-8-8-8-877775555555544444444--------------------------10-8-7|
-8-8-8-8-8-8-8-8-8-8-8-877775555555544444444-0--10/12-12~-0--10/12-12~------|


L
----------------------------------------------------------------------------|
----------------------------------------------------------------------------|
10101010101010101010101099997777777766666666--------------------------------|
-8-8-8-8-8-8-8-8-8-8-8-877775555555544444444---------------------------8-7--|
-8-8-8-8-8-8-8-8-8-8-8-877775555555544444444------------------------------10|
-8-8-8-8-8-8-8-8-8-8-8-877775555555544444444-0--10/12-12~-0--10/12-12~------|

R
----------------------------------------------------------------------------|
----------------------------------------------------------------------------|
10101010101010101010101099997777777766666666--------------------------------|
-8-8-8-8-8-8-8-8-8-8-8-877775555555544444444--------------------------------|
-8-8-8-8-8-8-8-8-8-8-8-877775555555544444444--------------------------10-8-7|
-8-8-8-8-8-8-8-8-8-8-8-877775555555544444444-0--10/12-12~-0--10/12-12~------|



--------------------------------------|
--------------------------------------|
1010101010101010101010109999777777776-|
-8-8-8-8-8-8-8-8-8-8-8-87777555555554-|
-8-8-8-8-8-8-8-8-8-8-8-87777555555554-|
-8-8-8-8-8-8-8-8-8-8-8-87777555555554-|




---------------------------------------------------------------|
---------------------------------------------------------------|
---------------------------------------------------------------|
---------------------------------------------------------------|
-00-0-00-00-00000-00-000000-0-00-00----------------------------|
-00-0-00-00-00000-00-000000-0-00-00-88888888-55555555----------|
 ** * ** ** ***** ** ****** * ** **

---------------------------------------------------------------|
---------------------------------------------------------------|
---------------------------------------------------------------|
---------------------------------------------------------------|
-00-0-00-00-00000-00-000000-0-00-00----------------------------|
-00-0-00-00-00000-00-000000-0-00-00-88888888-1111111111111111--|
 ** * ** ** ***** ** ****** * ** **

---------------------------------------------------------------|
---------------------------------------------------------------|
---------------------------------------------------------------|
---------------------------------------------------------------|
-00-0-00-00-00000-00-000000-0-00-00----------------------------|
-00-0-00-00-00000-00-000000-0-00-00-88888888-55445544----------|
 ** * ** ** ***** ** ****** * ** **

---------------------------------------------------------------|
---------------------------------------------------------------|
---------------------------------------------------------------|
---------------------------------------------------------------|
-00-0-00-00-00000-00-000000-0-00-00----------------------------|
-00-0-00-00-00000-00-000000-0-00-00-8855448855445544-----------|
 ** * ** ** ***** ** ****** * ** **

---------------------------------------|
---------------------------------------|
-13131313131313131313131313131313------|
-12121212121212121212121212121212------|
-11111111111111111111111111111111--0---|
-----------------------------------0---|
                                   *
I want to post or [tab]
guest
You may want to rate the tab now too:
select rating
Please do not post tabs as comments. Select "correction" instead!