Oops, an error
Loading. Please wait.

An Ounce Of Hope Tab

11 views 1 this week
no commentswrite comment
1 2 3 4 5
please rate
add to favorites launch autoscroll
font size
0
reset
Autoscroll
+/-
esc
set tempo
stop
Difficulty
Tuning
novice
B F# B E G# C#
WARNING: You are trying to view
                                    content from Ultimate-Guitar.com
                                    in an unauthorized application,
                                    which is prohibited.

                                    Please use an official Ultimate
                                    Guitar Tabs application for iPhone,
                                    iPad or Android to access legitimate
                                    chords, guitar, bass, and drum tabs
                                    from Ultimate-Guitar.com database.

                                    Type "ultimate guitar tabs" in Apple
                                    App Store's or Android Market's
                                    search to find the application.
http://www.facebook.com/thedivinethreshold


C#|---0~--0~--0--0-8~---8---0~--0~--0--0-8~----8~----------|
G#|-6~--6~---6-6--6---6---6~--6~---6-6--6---6--------------|
E |--------------------------------------------------(x2)--|
B|---------------------------------------------------------|
F#|--------------------------------------------------------|
B |--------------------------------------------------------|

[BREAKDOWN]
C#|----------------------------|
G#|----------------------------|
E |------------------------(x4)|
B |----------------------------|
F#|-0-0-0-0-0---1-1-1-11-------|
B |-0-0-0-0-0---0-0-0-00-------|
    . . . . .   . . . . .

THEN OVER BREAKDOWN
C#|---0~--0~--0--0-8~---8---0~--0~--0--0-8~----8~----------|
G#|-6~--6~---6-6--6---6---6~--6~---6-6--6---6--------------|
E |--------------------------------------------------(x2)--|
B|---------------------------------------------------------|
F#|--------------------------------------------------------|
B |--------------------------------------------------------|


[Chorus]
C#|-------------------------------------------------------------------------|
G#|-------------------------------------------------------------------------|
E |-------------------------------------------------------------------------|
B |-9999-999-999-9999-7777-777-777-7777-5555-555-555-5555-7777-777-777-7777-|
F#|-7777-777-777-7777-5555-555-555-5555-3333-333-333-3333-5555-555-555-5555-|
B |-7777-777-777-7777-5555-555-555-5555-3333-333-333-3333-5555-555-555-5555-|

C#|-------------------------------------------------------------------------|
G#|-------------------------------------------------------------------------|
E |-------------------------------------------------------------------------|
B |-9999-999-999-9999-7777-777-777-7777-5555-555-555-5555-7777-777-777-7777-|
F#|-7777-777-777-7777-5555-555-555-5555-3333-333-333-3333-5555-555-555-5555-|
B |-7777-777-777-7777-5555-555-555-5555-3333-333-333-3333-5555-555-555-5555-|

[Pause]
C#|-------------------------------------------------------------------------|
G#|-------------------------------------------------------------------------|
E |---------------------------------------------------------------------(x2)|
B |-99999999999999999999999999999999--55555555555555555555555555555555------|
F#|-77777777777777777777777777777777--33333333333333333333333333333333------|
B |-77777777777777777777777777777777--33333333333333333333333333333333------|

C#|-------------------------------------------------------------------------|
G#|-------------------------------------------------------------------------|
E |-------------------------------------------------------------------------|
B |-9999-999-999-9999-7777-777-777-7777-5555-555-555-5555-7777-777-777-7777-|
F#|-7777-777-777-7777-5555-555-555-5555-3333-333-333-3333-5555-555-555-5555-|
B |-7777-777-777-7777-5555-555-555-5555-3333-333-333-3333-5555-555-555-5555-|

C#|-------------------------------------------------------------------------|
G#|-------------------------------------------------------------------------|
E |-------------------------------------------------------------------------|
B |-9999-999-999-9999-7777-777-777-7777-5555-555-555-5555-7777-777-777-7777-|
F#|-7777-777-777-7777-5555-555-555-5555-3333-333-333-3333-5555-555-555-5555-|
B |-7777-777-777-7777-5555-555-555-5555-3333-333-333-3333-5555-555-555-5555-|

[BREAKDOWN]
C#|------------------------------------------|
G#|------------------------------------------|
E |--------------------------(Drum Break)----|
B |------------------------------------------|
F#|-000-000-00-0-0-00-000-000----------------|
B |-000-000-00-0-0-00-000-000----------------|
    ... ... .. . . .. ... ...

C#|------------------------------------------|
G#|------------------------------------------|
E |------------------------------------------|
B |------------------------------------------|
F#|-000-000-00-0-0-00-000-000----------------|
B |-000-000-00-0-0-00-000-000----------------|
    ... ... .. . . .. ... ...

C#|-------------------------------------------|
G#|-------------------------------------------|
E |-------------------------------------------|
B |-------------------------------------------|
F#|-000-000-00-0-0-00-000-000-----------------|
B |-000-000-00-0-0-00-000-000------1^---------|
    ... ... .. . . .. ... ...

C#|---------------------------------8---0-----|
G#|-----------------------------------6-------|
E |-------------------------------------------|
B |-------------------------------------------|
F#|-000-000-00-0-0-00-000-000-----------------|
B |-000-000-00-0-0-00-000-000-----------------|
    ... ... .. . . .. ... ...

C#|-------------------------------------------|
G#|-------------------------------------------|
E |-------------------------------------------|
B |-------------------------------------------|
F#|-000-000-00-0-0-00-000-000-----------------|
B |-000-000-00-0-0-00-000-000------1^---------|
    ... ... .. . . .. ... ...

  [Let Notes Ring]
C#|-------------------------------------------|
G#|-------------------------------------------|
E |-------------------------------------------|
B |-------------------------------------------|
F#|-000-000-00-0-0-00-000-000~----------------|
B |-000-000-00-0-0-00-000-000~----------------|

C#|-------------------------------------------|
G#|-------------------------------------------|
E |-------------------------------------------|
B |-------------------------------------------|
F#|-000-000-00-0-0-00-000-000~----------------|
B |-000-000-00-0-0-00-000-000~----1^----------|

[Palm Mute Again]
C#|---------------------------------8---0-----|
G#|-----------------------------------6-------|
E |-------------------------------------------|
B |-------------------------------------------|
F#|-000-000-00-0-0-00-000-000-----------------|
B |-000-000-00-0-0-00-000-000-----------------|
    ... ... .. . . .. ... ...

C#|-------------------------------------------|
G#|-------------------------------------------|
E |-------------------------------------------|
B |-------------------------------------------|
F#|-000-000-00-0-0-00-000-000-----------------|
B |-000-000-00-0-0-00-000-000------1^---------|
    ... ... .. . . .. ... ...

  [Two Step]
C#|---------------------------------------|
G#|---------------------------------------|
E |---------------------------------(x3)--|
B |---------------3^----------------------|
F#|-0-2-3-0-2-3-0----0-2-3-0-3-2-0--------|
B |-0-2-3-0-2-3-0----0-2-3-0-3-2-0--------|

C#|---------------------------------------|
G#|---------------------------------------|
E |---------------------------------------|
B |---------------3*----------------------|
F#|-0-2-3-0-2-3-0----0-2-3-0-3-2-0--------|
B |-0-2-3-0-2-3-0----0-2-3-0-3-2-0--------|

C#|---------------------------------------|
G#|---------------------------------------|
E |---------------------------------------|
B |---------------3^----------------------|
F#|-0-2-3-0-2-3-0----0-2-3-0-3-2-0--------|
B |-0-2-3-0-2-3-0----0-2-3-0-3-2-0--------|

C#|---------------------------------------|
G#|---------------------------------------|
E |---------------------------------------|
B |---------------3*----------------------|
F#|-0-2-3-0-2-3-0----0000-0000-0000-------|
B |-0-2-3-0-2-3-0----0000-0000-0000-------|
                     .... .... ....

C#|---------------------------------------|
G#|---------------------------------------|
E |---------------------------------------|
B |---------------3*----------------------|
F#|-0-2-3-0-2-3-0----0-2-3-0-3-2-0--------|
B |-0-2-3-0-2-3-0----0-2-3-0-3-2-0--------|

C#|---------------------------------------|
G#|---------------------------------------|
E |---------------------------------------|
B |---------------3*----------------------|
F#|-0-2-3-0-2-3-0----0000-0000-0000-------|
B |-0-2-3-0-2-3-0----0000-0000-0000-------|
                     .... .... ....

C#|-------------------------------------------------------------------------|
G#|-------------------------------------------------------------------------|
E |-------------------------------------------------------------------------|
B |-9999-999-999-9999-7777-777-777-7777-5555-555-555-5555-7777-777-777-7777-|
F#|-7777-777-777-7777-5555-555-555-5555-3333-333-333-3333-5555-555-555-5555-|
B |-7777-777-777-7777-5555-555-555-5555-3333-333-333-3333-5555-555-555-5555-|

C#|-------------------------------------------------------------------------|
G#|-------------------------------------------------------------------------|
E |-------------------------------------------------------------------------|
B |-9999-999-999-9999-7777-777-777-7777-5555-555-555-5555-7777-777-777-7777-|
F#|-7777-777-777-7777-5555-555-555-5555-3333-333-333-3333-5555-555-555-5555-|
B |-7777-777-777-7777-5555-555-555-5555-3333-333-333-3333-5555-555-555-5555-|

[Long Pause]
C#|-------------------------------------------------------------------------|
G#|-------------------------------------------------------------------------|
E |---------------------------------------------------------------------(x2)|
B |-99999999999999999999999999999999--55555555555555555555555555555555------|
F#|-77777777777777777777777777777777--33333333333333333333333333333333------|
B |-77777777777777777777777777777777--33333333333333333333333333333333------|

C#|-------------------------------------------------------------------|
G#|-------------------------------------------------------------------|
E |-------------------------------------------------------------------|
B |-9-9-9-9-9~-9-9~-999-99-9-9-9~-5-5-5-5-5~-5-5~-555-55-5-5-5~-------|
F#|-7-7-7-7-7~-7-7~-777-77-7-7-7~-3-3-3-3-3~-3-3~-333-33-3-3-3~-------|
B |-7-7-7-7-7~-7-7~-777-77-7-7-7~-3-3-3-3-3~-3-3~-333-33-3-3-3~-------|
               .             .               .             .

[BREAKDOWN]
C#|------------------------------------------|
G#|------------------------------------------|
E |------------------------------------------|
B |------------------------------------------|
F#|-000-0--00--000-0-00-4444-3333-2222-1111--|
B |-000-0--00--000-0-00-5555-4444-3333-2222--|
                        .... .... .... ....   

C#|--------------------------------|
G#|--------------------------------|
E |--------------------------------|       (X2)
B |--------------------------------|
F#|-000-0--00--000-0-00--0---0---0-|
B |-000-0--00--000-0-00--0---0---0-|

C#|----------------------------------------------|
G#|----------------------------------------------|
E |-----------------------------------------(x2)-|
B |----------------------------------------------|
F#|-111-1--11--111-1-11-4444-3333-2222-1111------|
B |-000-0--00--000-0-00-5555-4444-3333-2222------|
    ... .  ..  ... . .. .... .... .... .... 

C#|----------------------------------------------|
G#|----------------------------------------------|
E |-----------------------------------------(x2)-|
B |----------------------------------------------|
F#|-111-1--11--111-1-11---------0---0--0---------|
B |-000-0--00--000-0-00---------0---0--0---------|
    ... .  ..  ... . ..  

C#|------------------------------------------|
G#|------------------------------------------|
E |------------------------------------------|
B |------------------------------------------|
F#|-000-0--00--000-0-00-4444-3333-2222-1111--|
B |-000-0--00--000-0-00-5555-4444-3333-2222--|
                        .... .... .... ....   

C#|--------------------------------|
G#|--------------------------------|
E |--------------------------------|       
B |--------------------------------|
F#|-000-0--00--000-0-00--0---0---0-|
B |-000-0--00--000-0-00--0---0---0-|
comments
We did not receive enough feedback on this tab! Please rate:
1 2 3 4 5
I want to post or [tab]
guest
You may want to rate the tab now too:
select rating
Please do not post tabs as comments. Select "correction" instead!