Oops, an error
Loading. Please wait.

Goodnight Tonight Tab

55 views 1 this week
no commentswrite comment
1 2 3 4 5
please rate
add to favorites launch autoscroll
font size
0
reset
Autoscroll
+/-
esc
set tempo
stop
Contributor
Difficulty
intermediate
WARNING: You are trying to view
                                    content from Ultimate-Guitar.com
                                    in an unauthorized application,
                                    which is prohibited.

                                    Please use an official Ultimate
                                    Guitar Tabs application for iPhone,
                                    iPad or Android to access legitimate
                                    chords, guitar, bass, and drum tabs
                                    from Ultimate-Guitar.com database.

                                    Type "ultimate guitar tabs" in Apple
                                    App Store's or Android Market's
                                    search to find the application.
--------------------------------------------------------------
Artist    :  The Dollyrots
Song      :  Goodnight Tonight
Album     :  Eat My Heart Out
--------------------------------------------------------------
Tabbed By :  Ricky Thomson
Date      :  16th Febuary 2013
Contact   :  punkalert@gmail.com
--------------------------------------------------------------

Tuning: standard

b  = bend
x  = mute/rake
pm = palm mute


[intro]

     E           A           B           B
 e|---------------------------------------------------|
 B|---------------------------------------------------|
 G|--------1-----------6-----------8-----------8------|
 D|------2---2-------7---7-------9---9-------9---9----|
 A|----2-------2---7-------7---9-------9---9-------9--|
 E|--0-----------5-----------7-----------7------------|



[verse one]

     E5          B           C#          G#
 e|---------------------------------------------------|
 B|--------9-----------------------5------------------|
 G|------9---9---------8---------6---6---------5------|
 D|----9-------9-----9---9-----6-------6-----6---6----|
 A|--7-------------9-------9-4-------------6-------6--|
 E|--------------7-----------------------4------------| 
 
 
     A           E5           B          B
 e|---------------------------------------------------|
 B|--------------------9------------------------------|
 G|--------6---------9---9---------8-----------8------|
 D|------7---7-----9-------9-----9---9-------9---9----|
 A|----7-------7-7-------------9-------9---9-------9--|
 E|--5-----------------------7-----------7------------|

 
     E5          B           C#          G#
 e|---------------------------------------------------|
 B|--------9-----------------------5------------------|
 G|------9---9---------8---------6---6---------5------|
 D|----9-------9-----9---9-----6-------6-----6---6----|
 A|--7-------------9-------9-4-------------6-------6--|
 E|--------------7-----------------------4------------| 
 
 
     A           E5           B          B
 e|---------------------------------------------------|
 B|--------------------9------------------------------|
 G|--------6---------9---9---------8-----------8------|
 D|------7---7-----9-------9-----9---9-------9---9----|
 A|----7-------7-7-------------9-------9---9-------9--|
 E|--5-----------------------7-----------7------------|
 

 
[chorus]

PM[  . . . . . . . . . . . . . . . . . . . . . . . .  ]
 e|---------------------------------------------------|
 B|---------------------------------------------------|
 G|---------------------------------------------------|
 D|--7-7-7-7-7-7-9-9-9-9-9-9-6-6-6-6-6-6-7-7-7-7-7-7--|
 A|--7-7-7-7-7-7-9-9-9-9-9-9-6-6-6-6-6-6-7-7-7-7-7-7--|
 E|--5-5-5-5-5-5-7-7-7-7-7-7-4-4-4-4-4-4-5-5-5-5-5-5--|

 
PM[  . . . . . . . . . . . . . . . . . . . . . . . .  ]
 e|---------------------------------------------------|
 B|---------------------------------------------------|
 G|--------------------------6-6-6-6-6-6-6-6-6-6-6-6--|
 D|--7-7-7-7-7-7-9-9-9-9-9-9-6-6-6-6-6-6-6-6-6-6-6-6--|
 A|--7-7-7-7-7-7-9-9-9-9-9-9-4-4-4-4-4-4-4-4-4-4-4-4--|
 E|--5-5-5-5-5-5-7-7-7-7-7-7--------------------------|

 
PM[  . . . . . . . . . . . . . . . . . . . . . . . .  ]
 e|---------------------------------------------------|
 B|---------------------------------------------------|
 G|--------------------------9-9-9-8-8-8-6-6-6-6-6-6--|
 D|--7-7-7-7-7-7-9-9-9-9-9-9-9-9-9-8-8-8-6-6-6-6-6-6--|
 A|--7-7-7-7-7-7-9-9-9-9-9-9-7-7-7-6-6-6-4-4-4-4-4-4--|
 E|--5-5-5-5-5-5-7-7-7-7-7-7--------------------------|
 
 
PM[  . . . . . . . . . . . . . . . . . . .            ]
 e|---------------------------------------------------|
 B|---------------------------------------------------|
 G|--------------------------9-9-9-9-9-9-9-9-9-9-9-9--|
 D|--7-7-7-7-7-7-9-9-9-9-9-9-9-9-9-9-9-9-9-9-9-9-9-9--|
 A|--7-7-7-7-7-7-9-9-9-9-9-9-7-7-7-7-7-7-7-7-7-7-7-7--|
 E|--5-5-5-5-5-5-7-7-7-7-7-7--------------------------|
 
 
 
[verse two]

     E5          B           C#          G#
 e|---------------------------------------------------|
 B|--------9-----------------------5------------------|
 G|------9---9---------8---------6---6---------5------|
 D|----9-------9-----9---9-----6-------6-----6---6----|
 A|--7-------------9-------9-4-------------6-------6--|
 E|--------------7-----------------------4------------| 
 
 
     A           E5           B          B
 e|---------------------------------------------------|
 B|--------------------9------------------------------|
 G|--------6---------9---9---------8-----------8------|
 D|------7---7-----9-------9-----9---9-------9---9----|
 A|----7-------7-7-------------9-------9---9-------9--|
 E|--5-----------------------7-----------7------------|

 
     E5          B           C#          G#
 e|---------------------------------------------------|
 B|--------9-----------------------5------------------|
 G|------9---9---------8---------6---6---------5------|
 D|----9-------9-----9---9-----6-------6-----6---6----|
 A|--7-------------9-------9-4-------------6-------6--|
 E|--------------7-----------------------4------------| 
 
 
     A           E5           B          B
 e|---------------------------------------------------|
 B|--------------------9------------------------------|
 G|--------6---------9---9---------8-----------8------|
 D|------7---7-----9-------9-----9---9-------9---9----|
 A|----7-------7-7-------------9-------9---9-------9--|
 E|--5-----------------------7-----------7------------|
 
 
 
[chorus]

PM[  . . . . . . . . . . . . . . . . . . . . . . . .  ]
 e|---------------------------------------------------|
 B|---------------------------------------------------|
 G|---------------------------------------------------|
 D|--7-7-7-7-7-7-9-9-9-9-9-9-6-6-6-6-6-6-7-7-7-7-7-7--|
 A|--7-7-7-7-7-7-9-9-9-9-9-9-6-6-6-6-6-6-7-7-7-7-7-7--|
 E|--5-5-5-5-5-5-7-7-7-7-7-7-4-4-4-4-4-4-5-5-5-5-5-5--|

 
PM[  . . . . . . . . . . . . . . . . . . . . . . . .  ]
 e|---------------------------------------------------|
 B|---------------------------------------------------|
 G|--------------------------6-6-6-6-6-6-6-6-6-6-6-6--|
 D|--7-7-7-7-7-7-9-9-9-9-9-9-6-6-6-6-6-6-6-6-6-6-6-6--|
 A|--7-7-7-7-7-7-9-9-9-9-9-9-4-4-4-4-4-4-4-4-4-4-4-4--|
 E|--5-5-5-5-5-5-7-7-7-7-7-7--------------------------|

 
PM[  . . . . . . . . . . . . . . . . . . . . . . . .  ]
 e|---------------------------------------------------|
 B|---------------------------------------------------|
 G|--------------------------9-9-9-8-8-8-6-6-6-6-6-6--|
 D|--7-7-7-7-7-7-9-9-9-9-9-9-9-9-9-8-8-8-6-6-6-6-6-6--|
 A|--7-7-7-7-7-7-9-9-9-9-9-9-7-7-7-6-6-6-4-4-4-4-4-4--|
 E|--5-5-5-5-5-5-7-7-7-7-7-7--------------------------|
 
 
PM[  . . . . . . . . . . . . . . . . . . .            ]
 e|---------------------------------------------------|
 B|---------------------------------------------------|
 G|--------------------------9-9-9-9-9-9-9-9-9-9-9-9--|
 D|--7-7-7-7-7-7-9-9-9-9-9-9-9-9-9-9-9-9-9-9-9-9-9-9--|
 A|--7-7-7-7-7-7-9-9-9-9-9-9-7-7-7-7-7-7-7-7-7-7-7-7--|
 E|--5-5-5-5-5-5-7-7-7-7-7-7--------------------------|
 
 
 
[solo]
                                                           
 e|----4-----4-----4-----4-----4-----4-----2-----2----|
 B|--5---5-5---5-4---4-4---4-2---2-2---2-4---4-4---4--|
 G|---------------------------------------------------|
 D|---------------------------------------------------|
 A|---------------------------------------------------|
 E|---------------------------------------------------|
 
 e|----4-----4-----4-----4-----4-----4-----2-----2----|
 B|--5---5-5---5-4---4-4---4-2---2-2---2-4---4-4---4--|
 G|---------------------------------------------------|
 D|---------------------------------------------------|
 A|---------------------------------------------------|
 E|---------------------------------------------------|
 
 e|----4-----4-----4-----4-----5-----5-----7-----7----|
 B|--5---5-5---5-4---4-4---4-5---5-5---5-7---7-7---7--|
 G|---------------------------------------------------|
 D|---------------------------------------------------|
 A|---------------------------------------------------|
 E|---------------------------------------------------|
 
 e|----4-----4-----4-----4-----4-----4-----4-----4----|
 B|--5---5-5---5-5---5-5---5-5---5-5---5-5---5-5---5--|
 G|---------------------------------------------------|
 D|---------------------------------------------------|
 A|---------------------------------------------------|
 E|---------------------------------------------------|
 
 
[verse three]

   (end of solo; rings out for first bar)
 e|--4------------------------------------------------|
 B|--5------------------------------------------------|
 G|---------------------------------------------------|
 D|---------------------------------------------------| 
 A|---------------------------------------------------|
 E|---------------------------------------------------|

 
PM[  . . . . . . . . . . . . . . . . . . . . . . . .  ]
 e|---------------------------------------------------|
 B|---------------------------------------------------|
 G|--------------9-9-9-9-9-9--------------------------|
 D|--7-7-7-7-7-7-9-9-9-9-9-9-9-9-9-9-9-9-9-9-9-9-9-9--|
 A|--7-7-7-7-7-7-7-7-7-7-7-7-9-9-9-9-9-9-9-9-9-9-9-9--|
 E|--5-5-5-5-5-5-------------7-7-7-7-7-7-7-7-7-7-7-7--|

 
PM[  . . . . . . . . . . . . . . . . . . . . . . . .  ]
 e|---------------------------------------------------|
 B|---------------------------------------------------|
 G|--9-9-9-9-9-9-------------6-6-6-6-6-6--------------|
 D|--9-9-9-9-9-9-9-9-9-9-9-9-6-6-6-6-6-6-6-6-6-6-6-6--|
 A|--7-7-7-7-7-7-9-9-9-9-9-9-4-4-4-4-4-4-6-6-6-6-6-6--|
 E|--------------7-7-7-7-7-7-------------4-4-4-4-4-4--| 
 
 
PM[  . . . . . . . . . . . . . . . . . . .            ]
 e|---------------------------------------------------|
 B|---------------------------------------------------|
 G|--------------9-9-9-9-9-9--------------------------|
 D|--7-7-7-7-7-7-9-9-9-9-9-9-9-9-9-9-9-9-9-9-9-9-9-9--|
 A|--7-7-7-7-7-7-7-7-7-7-7-7-9-9-9-9-9-9-9-9-9-9-9-9--|
 E|--5-5-5-5-5-5-------------7-7-7-7-7-7-7-7-7-7-7-7--|
 
 
[outro]

 e|---------------------------------------------------|
 B|---------------------------------------------------|
 G|--------6b----------8b-----------------------------|
 D|--7-7-7-------9-9-9-------6-6-6-6-6-6-7-7-7-7-7-7--|
 A|--7-7-7-------9-9-9-------6-6-6-6-6-6-7-7-7-7-7-7--|
 E|--5-5-5-------7-7-7-------4-4-4-4-4-4-5-5-5-5-5-5--|


 e|---------------------------------------------------|
 B|---------------------------------------------------|
 G|--------6b----------8b----6-6-6-6-6-6-6-6-6-6-6-6--|
 D|--7-7-7-------9-9-9-------6-6-6-6-6-6-6-6-6-6-6-6--|
 A|--7-7-7-------9-9-9-------4-4-4-4-4-4-4-4-4-4-4-4--|
 E|--5-5-5-------7-7-7--------------------------------|
 
 e|---------------------------------------------------|
 B|---------------------------------------------------|
 G|--------6b----------8b----9-9-9-8-8-8-6-6-6-6-6-6--|
 D|--7-7-7-------9-9-9-------9-9-9-8-8-8-6-6-6-6-6-6--|
 A|--7-7-7-------9-9-9-------7-7-7-6-6-6-4-4-4-4-4-4--|
 E|--5-5-5-------7-7-7--------------------------------|
 
 e|---------------------------------------------------|
 B|---------------------------------------------------|
 G|--------------------------9-9-9-9-9-9-9-9-9-8-8-8--|
 D|--7-7-7-7-7-7-9-9-9-9-9-9-9-9-9-9-9-9-9-9-9-8-8-8--|
 A|--7-7-7-7-7-7-9-9-9-9-9-9-7-7-7-7-7-7-7-7-7-6-6-6--|
 E|--5-5-5-5-5-5-7-7-7-7-7-7--------------------------|
 
 e|---------------------------------------------------|
 B|---------------------------------------------------|
 G|--------------------------------------------8-8-8--|
 D|--7-7-7-7-7-7-9-9-9-9-9-9-2-2-2-2-2-2-2-2-2-8-8-8--|
 A|--7-7-7-7-7-7-9-9-9-9-9-9-2-2-2-2-2-2-2-2-2-6-6-6--|
 E|--5-5-5-5-5-5-7-7-7-7-7-7-0-0-0-0-0-0-0-0-0--------|
 
 e|---------------------------------------------------|
 B|---------------------------------------------------|
 G|---------------------------------------------------|
 D|--7-7-7-7-7-7--9x--9x--9x-2------------------------|
 A|--7-7-7-7-7-7--9x--9x--9x-2------------------------|
 E|--5-5-5-5-5-5--7x--7x--7x-0------------------------|
 

 Enjoy! 
comments
We did not receive enough feedback on this tab! Please rate:
print report bad tab
1 2 3 4 5
I want to post or [tab]
guest
You may want to rate the tab now too:
select rating
Please do not post tabs as comments. Select "correction" instead!