Oops, an error
Loading. Please wait.

Bad Romance Tab

113 views 1 this week
no commentswrite comment
1 2 3 4 5
please rate
add to favorites launch autoscroll
font size
0
reset
Autoscroll
+/-
esc
set tempo
stop
Contributor
Difficulty
Tuning
novice
C G C F A D
WARNING: You are trying to view
                                    content from Ultimate-Guitar.com
                                    in an unauthorized application,
                                    which is prohibited.

                                    Please use an official Ultimate
                                    Guitar Tabs application for iPhone,
                                    iPad or Android to access legitimate
                                    chords, guitar, bass, and drum tabs
                                    from Ultimate-Guitar.com database.

                                    Type "ultimate guitar tabs" in Apple
                                    App Store's or Android Market's
                                    search to find the application.
    Bad Romance                                    


                                                            The Eleventh Failure
GTR L
D||-------|-------------------|-------------------|-------------------|
A||-------|-------------------|-------------------|-------------------|
F||-------|-------------------|-------------------|-------------------|
C||-------|-------------------|-------------------|-------------------|
G||-------|-------------------|-------------------|-------------------|
C||-------|-------------------|-------------------|-------------------|
 
 
-------------------|-------------------|-------------------|-------------------|
-------------------|-------------------|-------------------|-------------------|
-------------------|-------------------|-------------------|-------------------|
-------------------|-------------------|-------------------|-------------------|
-------------------|-------------------|-------------------|-------------------|
-------------------|-------------------|-------------------|-------------------|
 
 
                      PM    PM       PM    PM         
                      S  E  S  E  E  S  E  S  E  S S  
-------------------|---------------------------------|
-------------------|---------------------------------|
-------------------|---------------------------------|
-------------------|---------------------------------|
-------------------|---------------------------------|
-------------------|--0--0--0--0--0--0--0--0--0--0-0-|
 
 
                PM    PM    PM PM    PM    PM       PM    PM         
  E  S S S S E  S  E  S  E  S  S     S  E  S  E  E  S  E  S  E  S S  
----------------------------------|---------------------------------|
----------------------------------|---------------------------------|
----------------------------------|---------------------------------|
----------------------------------|---------------------------------|
----------------------------------|---------------------------------|
-----0---0-0----0--0--0--0--0--0--|--0--0--0--0--0--0--0--0--0--0-0-|
 
 
                PM    PM    PM PM                               
  E  S S S S E  S  E  S  E  S  S     S E  S E  E  S E  S E  E   
----------------------------------|----------------------------|
----------------------------------|----------------------------|
----------------------------------|----------------------------|
----------------------------------|----------------------------|
----------------------------------|--0-0--0-0--0--0-0--0-0--0--|
-----0---0-0----0--0--0--0--0--0--|--1-1--1-1--1--1-1--1-1--1--|
 
 
  E  S S S S E  S E  S E  S S    S E  S E  E  S E  S E  E   
------------------------------|----------------------------|
------------------------------|----------------------------|
------------------------------|----------------------------|
------------------------------|----------------------------|
-----0---0-0----0-0--0-0--0-0-|--0-0--0-0--0--0-0--0-0--0--|
-----1---1-1----1-1--1-1--1-1-|--1-1--1-1--1--1-1--1-1--1--|
 
 
                                        PM PM     PM PM         
  E  S S S S E  S E  S E  S S    Q.     S  S   E  S  S  E   E   
------------------------------|--------------------------------|
------------------------------|--------------------------------|
------------------------------|--------------------------------|
------------------------------|--------------------------------|
-----0---0-0----0-0--0-0--0-0-|--------------------------------|
-----1---1-1----1-1--1-1--1-1-|---------0--0--12--0--0--3S--7--|
 
 
        PM PM PM PM                           PM PM                 
                    |----3----|                     |----3----|     
  E  E  S  S  S  S  Q    Q    Q       E.  E.  S  S  Q    Q    Q     
-----------------------------------|-------------------------------|
-----------------------------------|-------------------------------|
-----------------------------------|-------------------------------|
-----------------------------------|-------------------------------|
-----------------------------------|----------------3--------------|
-----0--0--0--0--0--1----4----1----|--0---0---0--0-------4----1----|
 
 
                                          PM PM              
               |----3----|                                   
  E   E  E  E  Q    Q    Q       E.   E.  S  S  E.  E  S E   
------------------------------|-----------------------------|
------------------------------|-----------------4-----------|
------------------------------|-----------------7-----------|
------------------------------|-----------------------------|
------------------------------|-----------------------------|
--L~--0--1--0--1----4----3----|--1~---0---0--0------0----0--|
 
 
                                         PM PM               
               |----3----|                                   
  E  E   E  E  Q    Q    Q       E.  E.  S  S  E.   E  S E   
------------------------------|-----------------------------|
------------------------------|-----------------------------|
------------------------------|-----------------------------|
------------------------------|-----------------------------|
-----8------------------------|-----------------------------|
--L-----10--3--7----8----5----|--0---0---0--0--1~---0----0--|
 
 
        PM PM                            PM PM    PM PM          
  E  E  S  S  E  E.  E.  E      E.   E.  S  S  E  S  S  E    E   
-----------------------------|----------------------------------|
-----------------------------|----------------------------------|
-----------------------------|----------------------------------|
-----------------------------|----------------------------------|
-----------------------------|-----------------8----------------|
--L--7--7--7--7--5---5---3S--|--8b---0---0--0-----0--0--7S--10--|
 
 
        PM PM PM PM                           PM PM                 
                    |----3----|                     |----3----|     
  E  E  S  S  S  S  Q    Q    Q       E.  E.  S  S  Q    Q    Q     
-----------------------------------|-------------------------------|
-----------------------------------|-------------------------------|
-----------------------------------|-------------------------------|
-----------------------------------|-------------------------------|
-----------------------------------|----------------7--------------|
-----0--0--0--0--0--1----4----1----|--0---0---0--0-------8----5----|
 
 
  PM                                                                          
  E   E  H.              H        S S S S S S E     Q.     S S E  S S E  S S  
----------------------|--------------------------|---------------------------|
----------------------|--------------------------|---------------------------|
----------------------|--------------------------|---------------------------|
----------------------|--------------------------|---------------------------|
----------------------|-----------0-0-0-0-0-0----|---------0-0----0-0----0-0-|
--L~------------------|-----------0-0-0-0-0-0----|---------0-0----0-0----0-0-|
 
 
  S S Q.     T T T T T S. T T T T T S.    Q.     S S E  S S S S S S  
---------------------------------------|----------------------------|
---------------------------------------|----------------------------|
---------------------------------------|----------------------------|
---------------------------------------|----------------------------|
--0-0--------0-0-0-0-0----0-0-0-0-0----|---------0-0----0-0---0-0-0-|
--0-0--------0-0-0-0-0----0-0-0-0-0----|---------0-0----0-0---0-0-0-|
 
 
  H        S S S S S S E     Q.     S S E  S S E  S S  
--------------------------|---------------------------|
--------------------------|---------------------------|
--------------------------|---------------------------|
--------------------------|---------------------------|
-----------0-0-0-0-0-0----|---------0-0----0-0----0-0-|
-----------0-0-0-0-0-0----|---------0-0----0-0----0-0-|
 
 
  S S E  Q    T T T T T S. T T T T T S.    Q.     S S E  S S S S S S  
----------------------------------------|----------------------------|
----------------------------------------|----------------------------|
----------------------------------------|----------------------------|
----------------------------------------|----------------------------|
--0-0---------0-0-0-0-0----0-0-0-0-0----|---------0-0----0-0---0-0-0-|
--0-0---------0-0-0-0-0----0-0-0-0-0----|---------0-0----0-0---0-0-0-|
 
 
-------------------|-------------------|-------------------|-------------------|
-------------------|-------------------|-------------------|-------------------|
-------------------|-------------------|-------------------|-------------------|
-------------------|-------------------|-------------------|-------------------|
-------------------|-------------------|-------------------|-------------------|
-------------------|-------------------|-------------------|-------------------|
 
 
  E  E  E  E  E  E  E  E     E  E  E  E  E  E   E   E   
--------------------------|----------------------------|
--------------------------|----------------------------|
--5--5--5--5--5--5--9--9--|--7--7--7--7--7--7--10--10--|
--3--3--3--3--3--3--3--3--|--5--5--5--5--5--5---5---5--|
--3--3--3--3--3--3--3--3--|--5--5--5--5--5--5---5---5--|
--3--3--3--3--3--3--3--3--|--5--5--5--5--5--5---5---5--|
 
 
  E  E  E  E  E  E  E  E      E   E   E   E   E   E   E   E   
--------------------------|----------------------------------|
--------------------------|----------------------------------|
--9--9--9--9--9--7--7--7--|--12--12--12--12--12--14--14--14--|
--7--7--7--7--7--7--7--7--|--10--10--10--10--10--10--10--10--|
--7--7--7--7--7--7--7--7--|--10--10--10--10--10--10--10--10--|
--7--7--7--7--7--7--7--7--|--10--10--10--10--10--10--10--10--|
 
 
  E  E  E  E  E  E  E  E     E  E  E  E  E  E   E   E   
--------------------------|----------------------------|
--------------------------|----------------------------|
--5--5--5--5--5--5--9--9--|--7--7--7--7--7--7--10--10--|
--3--3--3--3--3--3--3--3--|--5--5--5--5--5--5---5---5--|
--3--3--3--3--3--3--3--3--|--5--5--5--5--5--5---5---5--|
--3--3--3--3--3--3--3--3--|--5--5--5--5--5--5---5---5--|
 
 
  E  E  E  E  E  E  E  E     E  E  E  E  E  E  E  E   
--------------------------|--------------------------|
--------------------------|--------------------------|
--8--8--8--8--8--8--8--8--|--9--9--9--9--9--7--7--7--|
--6--6--6--6--6--6--6--6--|--7--7--7--7--7--5--5--5--|
--6--6--6--6--6--6--6--6--|--7--7--7--7--7--5--5--5--|
--6--6--6--6--6--6--6--6--|--7--7--7--7--7--5--5--5--|
 
 
  E   E  E   E   E   E   E  E      E  E   E   Q     E  E   E   
-------------------------------|------------------------------|
----------------10-------------|-------------13---------------|
-----10--9----------12--10--9--|------9--10--------10--9------|
------------10-----------------|--------------------------10--|
--8----------------------------|--10--------------------------|
-------------------------------|------------------------------|
 
 
   E  E   E   E  E   E   E  E     E  E   E  E  E  E  E  E   
-------------------------------|------------8--8-----------|
--10---------10---------10-----|--8---------------8--8-----|
------9----------9----------9--|-----9------------------7--|
---------10---------10---------|--------10-----------------|
-------------------------------|---------------------------|
-------------------------------|---------------------------|
 
 
  E   E  E   E  E  E   E   E     E   E  E  E  E  E   E   E   
------------------------------|-----------------------------|
----------------8--8--10--10--|-----------------------------|
-----10--9--------------------|-----10--9-----7--7--10--10--|
------------10----------------|--5---------5----------------|
--8---------------------------|-----------------------------|
------------------------------|-----------------------------|
 
 
  E  E  E  E   E   E   E   E      E   E   E   E  E  E  E  E   
------------------------------|------------------8--8--------|
------------------------------|------------------------8--8--|
--9--9--9--9--12--12--12--12--|------------------------------|
------------------------------|--10--10--10--10--------------|
------------------------------|------------------------------|
------------------------------|------------------------------|
 
 
  PM    PM       PM    PM                         PM    PM    PM PM  
  S  E  S  E  E  S  E  S  E  S S    E  S S S S E  S  E  S  E  S  S   
---------------------------------|----------------------------------|
---------------------------------|----------------------------------|
---------------------------------|----------------------------------|
---------------------------------|----------------------------------|
---------------------------------|----------------------------------|
--0--0--0--0--0--0--0--0--0--0-0-|-----0---0-0----0--0--0--0--0--0--|
 
 
  PM    PM       PM    PM                         PM    PM    PM PM  
  S  E  S  E  E  S  E  S  E  S S    E  S S S S E  S  E  S  E  S  S   
---------------------------------|----------------------------------|
---------------------------------|----------------------------------|
---------------------------------|----------------------------------|
---------------------------------|----------------------------------|
---------------------------------|----------------------------------|
--0--0--0--0--0--0--0--0--0--0-0-|-----0---0-0----0--0--0--0--0--0--|
 
 
-------------------|-------------------|-------------------|-------------------|
-------------------|-------------------|-------------------|-------------------|
-------------------|-------------------|-------------------|-------------------|
-------------------|-------------------|-------------------|-------------------|
-------------------|-------------------|-------------------|-------------------|
-------------------|-------------------|-------------------|-------------------|
 
 
           PM PM                                             
                                             |----3----|     
  E.   E.  S  S  E.  E  S E     E  E   E  E  Q    Q    Q     
-----------------------------|------------------------------|
-----------------4-----------|------------------------------|
-----------------7-----------|------------------------------|
-----------------------------|------------------------------|
-----------------------------|-----8------------------------|
--1~---0---0--0------0----0--|--L-----10--3--7----8----5----|
 
 
            PM PM                       PM PM                 
  S E  S E  S  S  E.   E  S E     E  E  S  S  E  E.  E.  E    
-------------------------------|-----------------------------|
-------------------------------|-----------------------------|
-------------------------------|-----------------------------|
-------------------------------|-----------------------------|
-------------------------------|-----------------------------|
--0-L--0-L--0--0--1~---0----0--|--L--7--7--7--7--5---5---3S--|
 
 
  T T T T H        S S S S S S    E  S S S E.  S S E  S S E   
-------------------------------|-----------------------------|
-------------------------------|-----------------------------|
-------------------------------|-----------------------------|
-------------------------------|-----------------------------|
--0-0-0-0----------0-0---0-0---|-----0-0-0-----0-0-0--0-0----|
--0-0-0-0----------0-0---0-0---|-----0-0-0-----0-0-0--0-0----|
 
 
  H        T T T T E  S S S S    E  S E  S E  H           
------------------------------|--------------------------|
------------------------------|--------------------------|
------------------------------|--------------------------|
------------------------------|--------------------------|
-----------0-0-0-0----0-0-0-0-|-----0-0--0-0-------------|
-----------0-0-0-0----0-0-0-0-|-----0-0--0-0--1br--------|
 
 
  T T T T Q.     E  S S S S S S    E  S S E  Q     S S S S E   
--------------------------------|-----------------------------|
--------------------------------|-----------------------------|
--------------------------------|-----------------------------|
--------------------------------|-----------------------------|
--0-0-0-0-L---------0-0---0-0---|-----0-0-0--------0-0-0-0----|
--0-0-0-0-L---------0-0---0-0---|-----0-0-0--1b----0-0-0-0----|
 
 
  H        T T T T E  S S S S    H        S S S E  S S S                      
------------------------------|--------------------------|-------------------|
------------------------------|--------------------------|-------------------|
------------------------------|--------------------------|-------------------|
------------------------------|--------------------------|-------------------|
-----------0-0-0-0----0-0-0-0-|-----------0-0-0-0--0-0---|-------------------|
-----------0-0-0-0----0-0-0-0-|-----------0-0-0-0--0-0---|-------------------|
 
 
-------------------|-------------------|-------------------|
-------------------|-------------------|-------------------|
-------------------|-------------------|-------------------|
-------------------|-------------------|-------------------|
-------------------|-------------------|-------------------|
-------------------|-------------------|-------------------|
 
 
  E  E  E  E  E  E  E  E     E  E  E  E  E  E   E   E   
--------------------------|----------------------------|
--------------------------|----------------------------|
--5--5--5--5--5--5--9--9--|--7--7--7--7--7--7--10--10--|
--3--3--3--3--3--3--3--3--|--5--5--5--5--5--5---5---5--|
--3--3--3--3--3--3--3--3--|--5--5--5--5--5--5---5---5--|
--3--3--3--3--3--3--3--3--|--5--5--5--5--5--5---5---5--|
 
 
  E  E  E  E  E  E  E  E      E   E   E   E   E   E   E   E   
--------------------------|----------------------------------|
--------------------------|----------------------------------|
--9--9--9--9--9--7--7--7--|--12--12--12--12--12--14--14--14--|
--7--7--7--7--7--7--7--7--|--10--10--10--10--10--10--10--10--|
--7--7--7--7--7--7--7--7--|--10--10--10--10--10--10--10--10--|
--7--7--7--7--7--7--7--7--|--10--10--10--10--10--10--10--10--|
 
 
  E  E  E  E  E  E  E  E     E  E  E  E  E  E   E   E   
--------------------------|----------------------------|
--------------------------|----------------------------|
--5--5--5--5--5--5--9--9--|--7--7--7--7--7--7--10--10--|
--3--3--3--3--3--3--3--3--|--5--5--5--5--5--5---5---5--|
--3--3--3--3--3--3--3--3--|--5--5--5--5--5--5---5---5--|
--3--3--3--3--3--3--3--3--|--5--5--5--5--5--5---5---5--|
 
 
  E  E  E  E  E  E  E  E     E  E  E  E  E  E  E  E   
--------------------------|--------------------------|
--------------------------|--------------------------|
--8--8--8--8--8--8--8--8--|--9--9--9--9--9--7--7--7--|
--6--6--6--6--6--6--6--6--|--7--7--7--7--7--5--5--5--|
--6--6--6--6--6--6--6--6--|--7--7--7--7--7--5--5--5--|
--6--6--6--6--6--6--6--6--|--7--7--7--7--7--5--5--5--|
 
 
  E   E  E   E   E   E   E  E      E  E   E   Q     E  E   E   
-------------------------------|------------------------------|
----------------10-------------|-------------13---------------|
-----10--9----------12--10--9--|------9--10--------10--9------|
------------10-----------------|--------------------------10--|
--8----------------------------|--10--------------------------|
-------------------------------|------------------------------|
 
 
   E  E   E   E  E   E   E  E     E  E   E  E  E  E  E  E   
-------------------------------|------------8--8-----------|
--10---------10---------10-----|--8---------------8--8-----|
------9----------9----------9--|-----9------------------7--|
---------10---------10---------|--------10-----------------|
-------------------------------|---------------------------|
-------------------------------|---------------------------|
 
 
  E   E  E   E  E  E   E   E     E   E  E  E  E  E   E   E   
------------------------------|-----------------------------|
----------------8--8--10--10--|-----------------------------|
-----10--9--------------------|-----10--9-----7--7--10--10--|
------------10----------------|--5---------5----------------|
--8---------------------------|-----------------------------|
------------------------------|-----------------------------|
 
 
  E  E  E  E   E   E   E   E      E   E   E   E  E  E  E  E   
------------------------------|------------------8--8--------|
------------------------------|------------------------8--8--|
--9--9--9--9--12--12--12--12--|------------------------------|
------------------------------|--10--10--10--10--------------|
------------------------------|------------------------------|
------------------------------|------------------------------|
 
 
  Q    Q    S S S E.  E     E   E   E   E   E   E   E   E    
-------------------------|----------------------------------|
-------------------------|----------------------------------|
-------------------------|----------------------------------|
-------------------------|----------------------------------|
--0----0----0-0-0-0---0--|-----(0)-----(0)-----(0)-----(0)--|
--1----1----1-1-1-1---1--|-----(1)-----(1)-----(1)-----(1)--|
 
 
  Q    Q    S S S E.  E     H        S S E  E  S S    Q    Q    S S S E.  E   
-------------------------|-------------------------|-------------------------|
-------------------------|-------------------------|-------------------------|
-------------------------|-------------------------|-------------------------|
-------------------------|-------------------------|-------------------------|
--0----0----0-0-0-0---0--|-----------0-0-0--0--0-0-|--0----0----0-0-0-0---0--|
--1----1----1-1-1-1---1--|-----------1-1-1--1--1-1-|--1----1----1-1-1-1---1--|
 
 
                                                        PM                 
   |---3---|  |---3---|                                                    
   S   S   S  S   S   S  E   E  S S E  E  S S     Q     Q    S S S E.  E   
----------------------------------------------|---------------------------|
----------------------------------------------|---------------------------|
-------------11h-14p-11-----------------------|---------------------------|
--10h-13p-10------------13~-------------------|---------------------------|
--------------------------------0-0-0--0--0-0-|--------------0-0-0-0---0--|
--------------------------------1-1-1--1--1-1-|--12\----0----0-0-0-0---0--|
 
 
     NH    NH    NH    NH          NH    NH    NH    NH          NH    NH    NH 
     T     T     T     T  T T S    T     T     T     T  T T S    T     T     T  
--<>(5)----L--------------------<>(5)----L--------------------<>(5)----L--------
--------<>(5)----L--------------------<>(5)----L--------------------<>(5)----L--
--------------<>(5)----L--------------------<>(5)----L--------------------<>(5)-
--------------------<>(5)-L-L---------------------<>(5)-L-L---------------------
-----------------------------------------------------------------0-----L-----0--
-----------------------------------------------------------------0-----L-----0--
 
 
  Q    Q    S S S E.  E     H        S S E  E  S S                      
-------------------------|-------------------------|-------------------|
-------------------------|-------------------------|-------------------|
-------------------------|-------------------------|-------------------|
-------------------------|-------------------------|-------------------|
--0----0----0-0-0-0---0--|-----------0-0-0--0--0-0-|-------------------|
--0----0----0-0-0-0---0--|-----------0-0-0--0--0-0-|-------------------|
 
 
-------------------|-------------------|-------------------|-------------------|
-------------------|-------------------|-------------------|-------------------|
-------------------|-------------------|-------------------|-------------------|
-------------------|-------------------|-------------------|-------------------|
-------------------|-------------------|-------------------|-------------------|
-------------------|-------------------|-------------------|-------------------|
 
 
-------------------|-------------------|-------------------|-------------------|
-------------------|-------------------|-------------------|-------------------|
-------------------|-------------------|-------------------|-------------------|
-------------------|-------------------|-------------------|-------------------|
-------------------|-------------------|-------------------|-------------------|
-------------------|-------------------|-------------------|-------------------|
 
 
                                          E  E  E  E  E  E  E  E   
-------------------|-------------------|--------------------------|
-------------------|-------------------|--------------------------|
-------------------|-------------------|--------------------------|
-------------------|-------------------|--------------------------|
-------------------|-------------------|--3--------------3--3--3--|
-------------------|-------------------|--3--3--3--3--3--3--3--3--|
 
 
  E  E  E  E  E  E  E  E     E  E  E  E  E  E  E  E   
--------------------------|--------------------------|
--------------------------|--------------------------|
--------------------------|--5--5--5--5--5--5--5--5--|
-----------------9--9--9--|--7--7--7--7--7--7--7--7--|
--5-----------------------|--------------------------|
--5--5--5--5--5--5--5--5--|--------------------------|
 
 
  E  E  E  E  E  E  E  E                         E  E  E  E  E  E  E  E   
--------------------------|-------------------|--------------------------|
--------------------------|-------------------|--------------------------|
--4--4--4--4--4--4--4--4--|-------------------|--5--5--5--5--5--5--9--9--|
--5--5--5--5--5--5--5--5--|-------------------|--3--3--3--3--3--3--3--3--|
--------------------------|-------------------|--3--3--3--3--3--3--3--3--|
--------------------------|-------------------|--3--3--3--3--3--3--3--3--|
 
 
  E  E  E  E  E  E   E   E     E  E  E  E  E  E  E  E   
----------------------------|--------------------------|
----------------------------|--------------------------|
--7--7--7--7--7--7--10--10--|--9--9--9--9--9--7--7--7--|
--5--5--5--5--5--5---5---5--|--7--7--7--7--7--7--7--7--|
--5--5--5--5--5--5---5---5--|--7--7--7--7--7--7--7--7--|
--5--5--5--5--5--5---5---5--|--7--7--7--7--7--7--7--7--|
 
 
   E   E   E   E   E   E   E   E     E  E  E  E  E  E  E  E   
----------------------------------|--------------------------|
----------------------------------|--------------------------|
--12--12--12--12--12--14--14--14--|--5--5--5--5--5--5--9--9--|
--10--10--10--10--10--10--10--10--|--3--3--3--3--3--3--3--3--|
--10--10--10--10--10--10--10--10--|--3--3--3--3--3--3--3--3--|
--10--10--10--10--10--10--10--10--|--3--3--3--3--3--3--3--3--|
 
 
  E  E  E  E  E  E   E   E     E  E  E  E  E  E  E  E   
----------------------------|--------------------------|
----------------------------|--------------------------|
--7--7--7--7--7--7--10--10--|--8--8--8--8--8--8--8--8--|
--5--5--5--5--5--5---5---5--|--6--6--6--6--6--6--6--6--|
--5--5--5--5--5--5---5---5--|--6--6--6--6--6--6--6--6--|
--5--5--5--5--5--5---5---5--|--6--6--6--6--6--6--6--6--|
 
 
  E  E  E  E  E  Q.        E  E  E  E  E  E  E  E     E  E  E  E  E  E  E  E   
------------------------|--------------------------|--------------------------|
------------------------|--------------------------|--------------------------|
--9--9--9--9--9---------|--------------------------|--------------------------|
--7--7--7--7--7---------|--3--3--3--3--3--3--3--3--|--5--5--5--5--5--5--5--5--|
--7--7--7--7--7---------|--3--3--3--3--3--3--3--3--|--5--5--5--5--5--5--5--5--|
--7--7--7--7--7---------|--3--3--3--3--3--3--3--3--|--5--5--5--5--5--5--5--5--|
 
 
  E  E  E  E  E  E  E  E      E   E   E   E   E   E   E   E   
--------------------------|----------------------------------|
--------------------------|----------------------------------|
--------------------------|----------------------------------|
--7--7--7--7--7--7--7--7--|--10--10--10--10--10--10--10--10--|
--7--7--7--7--7--7--7--7--|--10--10--10--10--10--10--10--10--|
--7--7--7--7--7--7--7--7--|--10--10--10--10--10--10--10--10--|
 
 
  E  E  E  E  E  E  E  E     E  E  E  E  E  E  E  E   
--------------------------|--------------------------|
--------------------------|--------------------------|
--------------------------|--------------------------|
--3--3--3--3--3--3--3--3--|--5--5--5--5--5--5--5--5--|
--3--3--3--3--3--3--3--3--|--5--5--5--5--5--5--5--5--|
--3--3--3--3--3--3--3--3--|--5--5--5--5--5--5--5--5--|
 
 
                                                                        PM  
  E  E  E  E  E  E  E  E     E  E  E  E  E  E  E  E     E  H.           E   
--------------------------|--------------------------|---------------------|
--------------------------|--------------------------|---------------------|
--------------------------|--------------------------|---------------------|
--6--6--6--6--6--6--6--6--|--7--7--7--7--7--7--5--5--|---------------------|
--6--6--6--6--6--6--6--6--|--7--7--7--7--7--7--5--5--|--0---------------0--|
--6--6--6--6--6--6--6--6--|--7--7--7--7--7--7--5--5--|--0---------------0--|
 
 
  PM                       PM    PM       PM    PM         
  E  E  H         Q        S  E  S  E  E  S  E  S  E  S S  
------------------------|---------------------------------|
------------------------|---------------------------------|
------------------------|---------------------------------|
------------------------|---------------------------------|
--0---------------------|---------------------------------|
--0--------------12\----|--0--0--0--0--0--0--0--0--0--0-0-|
 
 
                PM    PM    PM PM                       
  E  S S S S E  S  E  S  E  S  S     W                  
----------------------------------|-------------------||
----------------------------------|-------------------||
----------------------------------|-------------------||
----------------------------------|-------------------||
----------------------------------|-------------------||
-----0---0-0----0--0--0--0--0--0--|-------------------||
 
 

GTR R
D||-------------------|-------------------|-------------------|
A||-------------------|-------------------|-------------------|
F||-------------------|-------------------|-------------------|
C||-------------------|-------------------|-------------------|
G||-------------------|-------------------|-------------------|
C||-------------------|-------------------|-------------------|
 
 
-------------------|-------------------|-------------------|-------------------|
-------------------|-------------------|-------------------|-------------------|
-------------------|-------------------|-------------------|-------------------|
-------------------|-------------------|-------------------|-------------------|
-------------------|-------------------|-------------------|-------------------|
-------------------|-------------------|-------------------|-------------------|
 
 
                                          PM    PM       PM    PM         
                                          S  E  S  E  E  S  E  S  E  S S  
-------------------|-------------------|---------------------------------|
-------------------|-------------------|---------------------------------|
-------------------|-------------------|---------------------------------|
-------------------|-------------------|---------------------------------|
-------------------|-------------------|---------------------------------|
-------------------|-------------------|--0--0--0--0--0--0--0--0--0--0-0-|
 
 
                PM    PM    PM PM    PM    PM       PM    PM         
  E  S S S S E  S  E  S  E  S  S     S  E  S  E  E  S  E  S  E  S S  
----------------------------------|---------------------------------|
----------------------------------|---------------------------------|
----------------------------------|---------------------------------|
----------------------------------|---------------------------------|
----------------------------------|---------------------------------|
-----0---0-0----0--0--0--0--0--0--|--0--0--0--0--0--0--0--0--0--0-0-|
 
 
                PM    PM    PM PM                               
  E  S S S S E  S  E  S  E  S  S     S E  S E  E  S E  S E  E   
----------------------------------|----------------------------|
----------------------------------|----------------------------|
----------------------------------|----------------------------|
----------------------------------|----------------------------|
----------------------------------|--0-0--0-0--0--0-0--0-0--0--|
-----0---0-0----0--0--0--0--0--0--|--1-1--1-1--1--1-1--1-1--1--|
 
 
  E  S S S S E  S E  S E  S S    S E  S E  E  S E  S E  E   
------------------------------|----------------------------|
------------------------------|----------------------------|
------------------------------|----------------------------|
------------------------------|----------------------------|
-----0---0-0----0-0--0-0--0-0-|--0-0--0-0--0--0-0--0-0--0--|
-----1---1-1----1-1--1-1--1-1-|--1-1--1-1--1--1-1--1-1--1--|
 
 
                                          PM PM     PM PM         
  E  S S S S E  S E  S E  S S    E.   E.  S  S   E  S  S  E   E   
------------------------------|----------------------------------|
------------------------------|----------------------------------|
------------------------------|----------------------------------|
------------------------------|----------------------------------|
-----0---0-0----0-0--0-0--0-0-|----------------------------------|
-----1---1-1----1-1--1-1--1-1-|--8b---0---0--0--12--0--0--3S--7--|
 
 
        PM PM PM PM                           PM PM                 
                    |----3----|                     |----3----|     
  E  E  S  S  S  S  Q    Q    Q       E.  E.  S  S  Q    Q    Q     
-----------------------------------|-------------------------------|
-----------------------------------|-------------------------------|
-----------------------------------|-------------------------------|
-----------------------------------|-------------------------------|
-----------------------------------|----------------3--------------|
-----0--0--0--0--0--1----4----1----|--0---0---0--0-------4----1----|
 
 
                                          PM PM              
               |----3----|                                   
  E   E  E  E  Q    Q    Q       E.   E.  S  S  E.  E  S E   
------------------------------|-----------------------------|
------------------------------|-----------------4-----------|
------------------------------|-----------------7-----------|
------------------------------|-----------------------------|
------------------------------|-----------------------------|
--L~--0--1--0--1----4----3----|--1~---0---0--0------0----0--|
 
 
                                        PM PM               
              |----3----|                                   
  E  E  E  E  Q    Q    Q       E.  E.  S  S  E.   E  S E   
-----------------------------|-----------------------------|
-----------------------------|-----------------------------|
-----------------------------|-----------------------------|
-----------------------------|-----------------------------|
-----5-----------------------|-----------------------------|
--L-----7--0--3----5----1----|--0---0---0--0--1~---0----0--|
 
 
        PM PM                            PM PM     PM PM         
  E  E  S  S  E  E.  E.  E      E.   E.  S  S   E  S  S  E   E   
-----------------------------|----------------------------------|
-----------------------------|----------------------------------|
-----------------------------|----------------------------------|
-----------------------------|----------------------------------|
-----------------------------|----------------------------------|
--L--7--7--7--7--5---5---3S--|--8b---0---0--0--12--0--0--3S--7--|
 
 
        PM PM PM PM                           PM PM                 
                    |----3----|                     |----3----|     
  E  E  S  S  S  S  Q    Q    Q       E.  E.  S  S  Q    Q    Q     
-----------------------------------|-------------------------------|
-----------------------------------|-------------------------------|
-----------------------------------|-------------------------------|
-----------------------------------|-------------------------------|
-----------------------------------|----------------3--------------|
-----0--0--0--0--0--1----4----1----|--0---0---0--0-------4----1----|
 
 
               |----3----|                   |----3----|      
  E   E  E  E  Q    Q    Q       E  E  E  E  Q    Q    Q      
------------------------------|------------------------------|
------------------------------|------------------------------|
------------------------------|------------------------------|
------------------------------|------------------------------|
------------------------------|------------------------------|
--L~--0--1--0--1----4----3----|--1--0--1--0--1----4----3~----|
 
 
              |----3----|                     |----3----|      
  E  E  E  E  Q    Q    Q        E   E  E  E  Q    Q    Q      
-----------------------------|--------------------------------|
-----------------------------|--------------------------------|
-----------------------------|--------------------------------|
-----------------------------|--------------------------------|
-----------------------------|--------------------------------|
-----0--1--0--1----4----3----|--12~--0--1--0--1----4----3~----|
 
 
              |----3----|                   |----3----|      
  E  E  E  E  Q    Q    Q       E  E  E  E  Q    Q    Q      
-----------------------------|------------------------------|
-----------------------------|------------------------------|
-----------------------------|------------------------------|
-----------------------------|------------------------------|
-----------------------------|------------------------------|
-----0--1--0--1----4----3----|--1--0--1--0--1----4----3~----|
 
 
              |----3----|                     |----3----|      
  E  E  E  E  Q    Q    Q        E   E  E  E  Q    Q    Q      
-----------------------------|--------------------------------|
-----------------------------|--------------------------------|
-----------------------------|--------------------------------|
-----------------------------|--------------------------------|
-----------------------------|--------------------------------|
-----0--1--0--1----4----3----|--12~--0--1--0--1----4----3~----|
 
 
              |----3----|       -----------------   ----------------- 
  E  E  E  E  Q    Q    Q                                             
-----------------------------|-------------------|-------------------|
-----------------------------|-------------------|-------------------|
-----------------------------|-------------------|-------------------|
-----------------------------|-------------------|-------------------|
-----------------------------|-------------------|-------------------|
-----0--1--0--1----4----3----|-------------------|-------------------|
 
 
                                          E  E  E  E  E  E  E  E   
-------------------|-------------------|--------------------------|
-------------------|-------------------|--------------------------|
-------------------|-------------------|--------------------------|
-------------------|-------------------|--3--3--3--3--3--3--3--3--|
-------------------|-------------------|--3--3--3--3--3--3--3--3--|
-------------------|-------------------|--3--3--3--3--3--3--3--3--|
 
 
  E  E  E  E  E  E  E  E     E  E  E  E  E  E  E  E   
--------------------------|--------------------------|
--------------------------|--------------------------|
--------------------------|--------------------------|
--5--5--5--5--5--5--5--5--|--7--7--7--7--7--7--7--7--|
--5--5--5--5--5--5--5--5--|--7--7--7--7--7--7--7--7--|
--5--5--5--5--5--5--5--5--|--7--7--7--7--7--7--7--7--|
 
 
   E   E   E   E   E   E   E   E     E  E  E  E  E  E  E  E   
----------------------------------|--------------------------|
----------------------------------|--------------------------|
----------------------------------|--------------------------|
--10--10--10--10--10--10--10--10--|--3--3--3--3--3--3--3--3--|
--10--10--10--10--10--10--10--10--|--3--3--3--3--3--3--3--3--|
--10--10--10--10--10--10--10--10--|--3--3--3--3--3--3--3--3--|
 
 
  E  E  E  E  E  E  E  E     E  E  E  E  E  E  E  E   
--------------------------|--------------------------|
--------------------------|--------------------------|
--------------------------|--------------------------|
--5--5--5--5--5--5--5--5--|--6--6--6--6--6--6--6--6--|
--5--5--5--5--5--5--5--5--|--6--6--6--6--6--6--6--6--|
--5--5--5--5--5--5--5--5--|--6--6--6--6--6--6--6--6--|
 
 
  E  E  E  E  E  E  E  E     S S S S E  Q    S S E  E   
--------------------------|----------------------------|
--------------------------|----------------------------|
--------------------------|----------------------------|
--7--7--7--7--7--5--5--5--|----------------------------|
--7--7--7--7--7--5--5--5--|--3-3-3-3-3-------3-3-3--3--|
--7--7--7--7--7--5--5--5--|--3-3-3-3-3-------3-3-3--3--|
 
 
  S S E  S S E  Q    S S E     E  S S E  E  S S E  S S E   
----------------------------|-----------------------------|
----------------------------|-----------------------------|
----------------------------|-----------------------------|
----------------------------|-----------------------------|
--5-5-5--5-5-5-------5-5-5--|-----7-7-7--7--7-7-7--7-7-7--|
--5-5-5--5-5-5-------5-5-5--|-----7-7-7--7--7-7-7--7-7-7--|
 
 
   E   E   S  S  E   E   S  S  E   E     E  E  E  E  E  E  E  E   
--------------------------------------|--------------------------|
--------------------------------------|--------------------------|
--------------------------------------|--------------------------|
--------------------------------------|--3--3--3--3--3--3--3--3--|
--10--10--10-10-10--10--10-10-10--10--|--3--3--3--3--3--3--3--3--|
--10--10--10-10-10--10--10-10-10--10--|--3--3--3--3--3--3--3--3--|
 
 
  E  E  E  E  E  E  E  E     E  E  E  E  E  E  E  E   
--------------------------|--------------------------|
--------------------------|--------------------------|
--------------------------|--------------------------|
--5--5--5--5--5--5--5--5--|--6--6--6--6--6--6--6--6--|
--5--5--5--5--5--5--5--5--|--6--6--6--6--6--6--6--6--|
--5--5--5--5--5--5--5--5--|--6--6--6--6--6--6--6--6--|
 
 
                             PM    PM       PM    PM         
  E  E  E  E  E  E  E  E     S  E  S  E  E  S  E  S  E  S S  
--------------------------|---------------------------------|
--------------------------|---------------------------------|
--------------------------|---------------------------------|
--7--7--7--7--7--7--5--5--|---------------------------------|
--7--7--7--7--7--7--5--5--|---------------------------------|
--7--7--7--7--7--7--5--5--|--0--0--0--0--0--0--0--0--0--0-0-|
 
 
                PM    PM    PM PM    PM    PM       PM    PM         
  E  S S S S E  S  E  S  E  S  S     S  E  S  E  E  S  E  S  E  S S  
----------------------------------|---------------------------------|
----------------------------------|---------------------------------|
----------------------------------|---------------------------------|
----------------------------------|---------------------------------|
----------------------------------|---------------------------------|
-----0---0-0----0--0--0--0--0--0--|--0--0--0--0--0--0--0--0--0--0-0-|
 
 
                PM    PM    PM PM                                          
  E  S S S S E  S  E  S  E  S  S                                           
----------------------------------|-------------------|-------------------|
----------------------------------|-------------------|-------------------|
----------------------------------|-------------------|-------------------|
----------------------------------|-------------------|-------------------|
----------------------------------|-------------------|-------------------|
-----0---0-0----0--0--0--0--0--0--|-------------------|-------------------|
 
 
                                                   PM PM              
                                          E.   E.  S  S  E.  E  S E   
-------------------|-------------------|-----------------------------|
-------------------|-------------------|-----------------4-----------|
-------------------|-------------------|-----------------7-----------|
-------------------|-------------------|-----------------------------|
-------------------|-------------------|-----------------------------|
-------------------|-------------------|--1~---0---0--0------0----0--|
 
 
                                        PM PM               
              |----3----|                                   
  E  E  E  E  Q    Q    Q       E.  E.  S  S  E.   E  S E   
-----------------------------|-----------------------------|
-----------------------------|-----------------------------|
-----------------------------|-----------------------------|
-----------------------------|-----------------------------|
-----5-----------------------|-----------------------------|
--L-----7--0--3----5----1----|--0---0---0--0--1~---0----0--|
 
 
        PM PM                                                 
  E  E  S  S  E  E.  E.  E      T T T T H        S S S S S S  
-----------------------------|-------------------------------|
-----------------------------|-------------------------------|
-----------------------------|-------------------------------|
-----------------------------|-------------------------------|
-----------------------------|--0-0-0-0----------0-0---0-0---|
--L--7--7--7--7--5---5---3S--|--0-0-0-0----------0-0---0-0---|
 
 
  E  S S S E.  S S E  S S E     H        T T T T E  S S S S  
-----------------------------|------------------------------|
-----------------------------|------------------------------|
-----------------------------|------------------------------|
-----------------------------|------------------------------|
-----0-0-0-----0-0-0--0-0----|-----------0-0-0-0----0-0-0-0-|
-----0-0-0-----0-0-0--0-0----|-----------0-0-0-0----0-0-0-0-|
 
 
  E  S E  S E  H             T T T T Q.     E  S S S S S S  
--------------------------|--------------------------------|
--------------------------|--------------------------------|
--------------------------|--------------------------------|
--------------------------|--------------------------------|
-----0-0--0-0-------------|--0-0-0-0-L---------0-0---0-0---|
-----0-0--0-0--1br--------|--0-0-0-0-L---------0-0---0-0---|
 
 
  E  S S E  Q     S S S S E     H        T T T T E  S S S S  
-----------------------------|------------------------------|
-----------------------------|------------------------------|
-----------------------------|------------------------------|
-----------------------------|------------------------------|
-----0-0-0--------0-0-0-0----|-----------0-0-0-0----0-0-0-0-|
-----0-0-0--1b----0-0-0-0----|-----------0-0-0-0----0-0-0-0-|
 
 
  H        S S S E  S S S                                          
--------------------------|-------------------|-------------------|
--------------------------|-------------------|-------------------|
--------------------------|-------------------|-------------------|
--------------------------|-------------------|-------------------|
-----------0-0-0-0--0-0---|-------------------|-------------------|
-----------0-0-0-0--0-0---|-------------------|-------------------|
 
 
                                          E  E  E  E  E  E  E  E   
-------------------|-------------------|--------------------------|
-------------------|-------------------|--------------------------|
-------------------|-------------------|--------------------------|
-------------------|-------------------|--3--3--3--3--3--3--3--3--|
-------------------|-------------------|--3--3--3--3--3--3--3--3--|
-------------------|-------------------|--3--3--3--3--3--3--3--3--|
 
 
  E  E  E  E  E  E  E  E     E  E  E  E  E  E  E  E   
--------------------------|--------------------------|
--------------------------|--------------------------|
--------------------------|--------------------------|
--5--5--5--5--5--5--5--5--|--7--7--7--7--7--7--7--7--|
--5--5--5--5--5--5--5--5--|--7--7--7--7--7--7--7--7--|
--5--5--5--5--5--5--5--5--|--7--7--7--7--7--7--7--7--|
 
 
   E   E   E   E   E   E   E   E     E  E  E  E  E  E  E  E   
----------------------------------|--------------------------|
----------------------------------|--------------------------|
----------------------------------|--------------------------|
--10--10--10--10--10--10--10--10--|--3--3--3--3--3--3--3--3--|
--10--10--10--10--10--10--10--10--|--3--3--3--3--3--3--3--3--|
--10--10--10--10--10--10--10--10--|--3--3--3--3--3--3--3--3--|
 
 
  E  E  E  E  E  E  E  E     E  E  E  E  E  E  E  E   
--------------------------|--------------------------|
--------------------------|--------------------------|
--------------------------|--------------------------|
--5--5--5--5--5--5--5--5--|--6--6--6--6--6--6--6--6--|
--5--5--5--5--5--5--5--5--|--6--6--6--6--6--6--6--6--|
--5--5--5--5--5--5--5--5--|--6--6--6--6--6--6--6--6--|
 
 
  E  E  E  E  E  E  E  E     S S S S E  Q    S S E  E   
--------------------------|----------------------------|
--------------------------|----------------------------|
--------------------------|----------------------------|
--7--7--7--7--7--5--5--5--|----------------------------|
--7--7--7--7--7--5--5--5--|--3-3-3-3-3-------3-3-3--3--|
--7--7--7--7--7--5--5--5--|--3-3-3-3-3-------3-3-3--3--|
 
 
  S S E  S S E  Q    S S E     E  S S E  E  S S E  S S E   
----------------------------|-----------------------------|
----------------------------|-----------------------------|
----------------------------|-----------------------------|
----------------------------|-----------------------------|
--5-5-5--5-5-5-------5-5-5--|-----7-7-7--7--7-7-7--7-7-7--|
--5-5-5--5-5-5-------5-5-5--|-----7-7-7--7--7-7-7--7-7-7--|
 
 
   E   E   E   E   E   E   E   E     E  E  E  E  E  E  E  E   
----------------------------------|--------------------------|
----------------------------------|--------------------------|
----------------------------------|--------------------------|
--10--10--10--10--10--10--10--10--|--3--3--3--3--3--3--3--3--|
--10--10--10--10--10--10--10--10--|--3--3--3--3--3--3--3--3--|
--10--10--10--10--10--10--10--10--|--3--3--3--3--3--3--3--3--|
 
 
  E  E  E  E  E  E  E  E     E  E  E  E  E  E  E  E   
--------------------------|--------------------------|
--------------------------|--------------------------|
--------------------------|--------------------------|
--5--5--5--5--5--5--5--5--|--6--6--6--6--6--6--6--6--|
--5--5--5--5--5--5--5--5--|--6--6--6--6--6--6--6--6--|
--5--5--5--5--5--5--5--5--|--6--6--6--6--6--6--6--6--|
 
 
  E  E  E  E  E  E  E  E                                           
--------------------------|-------------------|-------------------|
--------------------------|-------------------|-------------------|
--------------------------|-------------------|-------------------|
--7--7--7--7--7--7--5--5--|-------------------|-------------------|
--7--7--7--7--7--7--5--5--|-------------------|-------------------|
--7--7--7--7--7--7--5--5--|-------------------|-------------------|
 
 
  Q    Q    S S S E.  E     H        S S E  E  S S    Q    Q    S S S E.  E   
-------------------------|-------------------------|-------------------------|
-------------------------|-------------------------|-------------------------|
-------------------------|-------------------------|-------------------------|
-------------------------|-------------------------|-------------------------|
--0----0----0-0-0-0---0--|-----------0-0-0--0--0-0-|--0----0----0-0-0-0---0--|
--1----1----1-1-1-1---1--|-----------1-1-1--1--1-1-|--1----1----1-1-1-1---1--|
 
 
                                                        PM                 
   |---3---|  |---3---|                                                    
   S   S   S  S   S   S  E   E  S S E  E  S S     Q     Q    S S S E.  E   
----------------------------------------------|---------------------------|
----------------------------------------------|---------------------------|
-------------14h-17p-14-----------------------|---------------------------|
--13h-16p-13------------16~-------------------|---------------------------|
--------------------------------0-0-0--0--0-0-|--------------0-0-0-0---0--|
--------------------------------1-1-1--1--1-1-|--15\----0----0-0-0-0---0--|
 
 
     NH    NH    NH    NH          NH    NH    NH    NH          NH    NH    NH 
     T     T     T     T  T T S    T     T     T     T  T T S    T     T     T  
--<>(5)----L--------------------<>(5)----L--------------------<>(5)----L--------
--------<>(5)----L--------------------<>(5)----L--------------------<>(5)----L--
--------------<>(5)----L--------------------<>(5)----L--------------------<>(5)-
--------------------<>(5)-L-L---------------------<>(5)-L-L---------------------
-----------------------------------------------------------------0-----L-----0--
-----------------------------------------------------------------0-----L-----0--
 
 
  Q    Q    S S S E.  E     H        S S E  E  S S    E  E  E  E  E  E  E  E   
-------------------------|-------------------------|--0--------------0--------|
-------------------------|-------------------------|--1--------1--------1-----|
-------------------------|-------------------------|--------2-----2--------2--|
-------------------------|-------------------------|-----2--------------------|
--0----0----0-0-0-0---0--|-----------0-0-0--0--0-0-|--------------------------|
--0----0----0-0-0-0---0--|-----------0-0-0--0--0-0-|--------------------------|
 
 
  E  E  E  E  E  E  E  E     E  E  E  E  E  E  E  E   
--3--------------3--------|--0--------------0--------|
-----------0--------0-----|--1--------1--------1-----|
--------0--------------0--|--------2-----2--------2--|
-----0--------------------|-----2--------------------|
--------------2-----------|--------------------------|
--------------------------|--------------------------|
 
 
  E  E  E  E  E  E  E  E     E  E  E  E  E  E  E  E   
-----------------0--------|--0--------------0--------|
--0--------0--------0-----|--1--------1--------1-----|
--------0-----0--------0--|--------2-----2--------2--|
-----2--------------------|-----2--------------------|
--2-----------------------|--------------------------|
--------------------------|--------------------------|
 
 
  E  E  E  E  E  E  E  E     E  E  E  E  E  E  E  E   
--3--------------3--------|--0--------------0--------|
-----------0--------0-----|--1--------1--------1-----|
--------0--------------0--|--------2-----2--------2--|
-----0--------------------|-----2--------------------|
--------------2-----------|--------------------------|
--------------------------|--------------------------|
 
 
  E  E  E  E  E  E  E  E     E  E  E  E  E  E  E  E   
-----------------0--------|--0--------------0--------|
--0--------0--------0-----|--1--------1--------1-----|
--------0-----0--------0--|--------2-----2--------2--|
-----2--------------------|-----2--------------------|
--2-----------------------|--------------------------|
--------------------------|--------------------------|
 
 
  E  E  E  E  E  E  E  E     E  E  E  E  E  E  E  E   
--3--------------3--------|--0--------------0--------|
-----------0--------0-----|--1--------1--------1-----|
--------0--------------0--|--------2-----2--------2--|
-----0--------------------|-----2--------------------|
--------------2-----------|--------------------------|
--------------------------|--------------------------|
 
 
  E  E  E  E  E  E  E  E     E  E  E  E  E  E  E  E   
--1--------------1--------|--3--------------3--------|
--1--------1--------1-----|--1--------1--------1-----|
--2-----2--------------2--|--0-----0-----0--------0--|
-----3--------------------|-----0--------------------|
--------------3-----------|--------------------------|
--------------------------|--------------------------|
 
 
  E  E  E  E  E  E  E  E     E  E  E  E  E  E  E  E                       
--3--------------3--------|--3--------3--------3-----|-------------------|
--1--------1--------0-----|--0--0--------0--------0--|-------------------|
--0-----0-----0--------0--|--0-----0--------0--------|-------------------|
-----0--------------------|--------------------------|-------------------|
--------------------------|--------------------------|-------------------|
--------------------------|--------------------------|-------------------|
 
 
  E  E  E  E  E  E  E  E     E  E  E  E  E  E  E  E   
--------------------------|--------------------------|
--------------------------|--------------------------|
--------------------------|--------------------------|
--3--3--3--3--3--3--3--3--|--5--5--5--5--5--5--5--5--|
--3--3--3--3--3--3--3--3--|--5--5--5--5--5--5--5--5--|
--3--3--3--3--3--3--3--3--|--5--5--5--5--5--5--5--5--|
 
 
  E  E  E  E  E  E  E  E      E   E   E   E   E   E   E   E   
--------------------------|----------------------------------|
--------------------------|----------------------------------|
--------------------------|----------------------------------|
--7--7--7--7--7--7--7--7--|--10--10--10--10--10--10--10--10--|
--7--7--7--7--7--7--7--7--|--10--10--10--10--10--10--10--10--|
--7--7--7--7--7--7--7--7--|--10--10--10--10--10--10--10--10--|
 
 
  E  E  E  E  E  E  E  E     E  E  E  E  E  E  E  E   
--------------------------|--------------------------|
--------------------------|--------------------------|
--------------------------|--------------------------|
--3--3--3--3--3--3--3--3--|--5--5--5--5--5--5--5--5--|
--3--3--3--3--3--3--3--3--|--5--5--5--5--5--5--5--5--|
--3--3--3--3--3--3--3--3--|--5--5--5--5--5--5--5--5--|
 
 
  E  E  E  E  E  E  E  E     E  E  E  E  E  Q.        E  E  E  E  E  E  E  E   
--------------------------|------------------------|--------------------------|
--------------------------|------------------------|--------------------------|
--------------------------|------------------------|--------------------------|
--6--6--6--6--6--6--6--6--|--7--7--7--7--7---------|--3--3--3--3--3--3--3--3--|
--6--6--6--6--6--6--6--6--|--7--7--7--7--7---------|--3--3--3--3--3--3--3--3--|
--6--6--6--6--6--6--6--6--|--7--7--7--7--7---------|--3--3--3--3--3--3--3--3--|
 
 
  E  E  E  E  E  E  E  E     E  E  E  E  E  E  E  E   
--------------------------|--------------------------|
--------------------------|--------------------------|
--------------------------|--------------------------|
--5--5--5--5--5--5--5--5--|--7--7--7--7--7--7--7--7--|
--5--5--5--5--5--5--5--5--|--7--7--7--7--7--7--7--7--|
--5--5--5--5--5--5--5--5--|--7--7--7--7--7--7--7--7--|
 
 
   E   E   E   E   E   E   E   E     E  E  E  E  E  E  E  E   
----------------------------------|--------------------------|
----------------------------------|--------------------------|
----------------------------------|--------------------------|
--10--10--10--10--10--10--10--10--|--3--3--3--3--3--3--3--3--|
--10--10--10--10--10--10--10--10--|--3--3--3--3--3--3--3--3--|
--10--10--10--10--10--10--10--10--|--3--3--3--3--3--3--3--3--|
 
 
  E  E  E  E  E  E  E  E     E  E  E  E  E  E  E  E   
--------------------------|--------------------------|
--------------------------|--------------------------|
--------------------------|--------------------------|
--5--5--5--5--5--5--5--5--|--6--6--6--6--6--6--6--6--|
--5--5--5--5--5--5--5--5--|--6--6--6--6--6--6--6--6--|
--5--5--5--5--5--5--5--5--|--6--6--6--6--6--6--6--6--|
 
 
                                             PM    PM                     
  E  E  E  E  E  E  E  E     E  H.           E     E  E  H         Q      
--------------------------|---------------------|------------------------|
--------------------------|---------------------|------------------------|
--------------------------|---------------------|------------------------|
--7--7--7--7--7--7--5--5--|---------------------|------------------------|
--7--7--7--7--7--7--5--5--|--0---------------0--|--0---------------------|
--7--7--7--7--7--7--5--5--|--0---------------0--|--0--------------15\----|
 
 
  PM    PM       PM    PM                         PM    PM    PM PM  
  S  E  S  E  E  S  E  S  E  S S    E  S S S S E  S  E  S  E  S  S   
---------------------------------|----------------------------------|
---------------------------------|----------------------------------|
---------------------------------|----------------------------------|
---------------------------------|----------------------------------|
---------------------------------|----------------------------------|
--0--0--0--0--0--0--0--0--0--0-0-|-----0---0-0----0--0--0--0--0--0--|
 
 
  W                  
-------------------||
-------------------||
-------------------||
-------------------||
-------------------||
-------------------||


 
 
Duration Legend
---------------
W - whole
H - half
Q - quarter
E - 8th
S - 16th
T - 32nd
X - 64th
. - note dotted
|-n-|  - n-tuplets
 
 
Tablature Legend
----------------
L - tied note
x - dead note
g - grace note
(n) - ghost note
> - accentuded note
NH - natural harmonic
AH - artificial harmonic
TH - tapped harmonic
SH - semi harmonic
PH - pitch harmonic
h - hammer on
p - pull off
b - bend
br - bendRelease
pb - preBend
pbr - preBendRelease
brb - bendReleaseBend
\n/ - tremolo bar dip
\n - tremolo bar dive
-/n - tremolo bar Release up
/n\ - tremolo bar inverted dip
/n - tremolo bar return
-\n - tremolo bar Release down
S - shift slide
s - legato slide
/ -  slide into from below or out of upwards
\ -  slide into from above or out of downwards
~ - vibrato
W - wide vibrato
tr - tril'
TP - tremolo picking
T - tapping
S - slap
P - pop
< - fade in
^ - brush up
v - brush down
comments
We did not receive enough feedback on this tab! Please rate:
print report bad tab
1 2 3 4 5
I want to post or [tab]
guest
You may want to rate the tab now too:
select rating
Please do not post tabs as comments. Select "correction" instead!