Oops, an error
Loading. Please wait.

Irreversible Bass Tab

ver1
ver1

Whole song

Interactive

More versions @911Tabs.com
19 views 1 this week
no commentswrite comment
1 2 3 4 5
please rate
add to favorites launch autoscroll
font size
0
reset
Autoscroll
+/-
esc
set tempo
stop
Contributor
Difficulty
Tuning
novice
C G C F A D
WARNING: You are trying to view
                                    content from Ultimate-Guitar.com
                                    in an unauthorized application,
                                    which is prohibited.

                                    Please use an official Ultimate
                                    Guitar Tabs application for iPhone,
                                    iPad or Android to access legitimate
                                    chords, guitar, bass, and drum tabs
                                    from Ultimate-Guitar.com database.

                                    Type "ultimate guitar tabs" in Apple
                                    App Store's or Android Market's
                                    search to find the application.
  Irreversible                                   


                                                            The Eleventh Failure
Bass
                         E  E  E  E  E  E     E  E  E  E  E  E  E  E   
A||-------------------|--------------------|--------------------------|
F||-------------------|--------------------|--------------------------|
C||-------------------|--------------------|--------------------------|
G||-------------------|--------------------|--------------------------|
C||-------------------|--8--8--8--8--8--8--|--8--8--8--8--8--8--8--8--|
 
 
  E  E  E  E  E  E     E  E  E  E  E  E  E  E     E  E  E  E  E  E  E  E   
--------------------|--------------------------|--------------------------|
--------------------|--------------------------|--------------------------|
--------------------|--------------------------|--------------------------|
--------------------|--------------------------|--------------------------|
--5--5--5--5--5--5--|--5--5--5--5--5--5--5--5--|--0--0--L--0--0--L--0--0--|
 
 
  E  E  E  E  E  E  E  E     E  E  E  E  E  E  E  E   
--------------------------|--------------------------|
--------------------------|--------------------------|
--------------------------|--------------------------|
--------------------------|--------------------------|
--L--0--0--0--8--8--7--7--|--0--0--L--0--0--0--0--0--|
 
 
  E  E  E  E   E   E  E  E     E  E  E  E  E  E     E  E  E  E  E  E  E  E   
----------------------------|--------------------|--------------------------|
----------------------------|--------------------|--------------------------|
----------------------------|--------------------|--------------------------|
----------------------------|--------------------|--------------------------|
--L--0--0--0--10--10--7--7--|--8--8--8--8--8--8--|--8--8--8--8--8--8--8--8--|
 
 
  E  E  E  E  E  E     E  E  E  E  E  E  E  E     W                 
--------------------|--------------------------|-------------------|
--------------------|--------------------------|-------------------|
--------------------|--------------------------|-------------------|
--------------------|--------------------------|-------------------|
--5--5--5--5--5--5--|--5--5--5--5--5--5--5--5--|--0----------------|
 
 
  W                   E  E  H.              W                 
-------------------|---------------------|-------------------|
-------------------|---------------------|-------------------|
-------------------|---------------------|-------------------|
-------------------|---------------------|-------------------|
--L----------------|--0--0---------------|-------------------|
 
 
  W                   W                   Q     Q     Q     Q     
-------------------|-------------------|-------------------------|
-------------------|-------------------|-------------------------|
-------------------|-------------------|-------------------------|
-------------------|-------------------|-------10----12----------|
--0----------------|--L----------------|--8----------------10----|
 
 
   Q     Q    Q    Q       S S E  E  E  E  E  E  E     E  E  E  E  E  E  E  E   
------------------------|---------------------------|--------------------------|
------------------------|---------------------------|--------------------------|
------------------------|---------3-----2--------3--|--------------------------|
--10----12----7----8----|------------------0--------|--------------------------|
------------------------|--0-0-0-----0--------0-----|--5--5--5--5--5--5--5--5--|
 
 
  E  E  E  E  E  E  E  E     E  E  E  E  E  E  E  E   
--------------------------|--------------------------|
--------------------------|--------------------------|
--------3-----2-----------|--------------------------|
-----------------0-----3--|--1--1--1--1--1--1--1--1--|
--0--0-----0--------0-----|--------------------------|
 
 
  S S E  E  E  E  E  E  E     E  E  E  E  E  E  E  E   
---------------------------|--------------------------|
---------------------------|--------------------------|
---------3-----2--------0--|--------------------------|
------------------0--------|--------------------------|
--0-0-0-----0--------0-----|--5--5--5--5--5--5--5--5--|
 
 
  Q     Q     Q     Q        Q     Q    Q    Q       S S E  E  E  E  E  E  E   
-------------------------|------------------------|---------------------------|
-------------------------|------------------------|---------------------------|
-------------------------|------------------------|---------3-----2--------3--|
-------10----12----------|--10----12----7----8----|------------------0--------|
--8----------------10----|------------------------|--0-0-0-----0--------0-----|
 
 
  E  E  E  E  E  E  E  E     E  E  E  E  E  E  E  E   
--------------------------|--------------------------|
--------------------------|--------------------------|
--------------------------|--------3-----2-----------|
--------------------------|-----------------0-----3--|
--5--5--5--5--5--5--5--5--|--0--0-----0--------0-----|
 
 
  E  E  E  E  E  E  E  E     S S E  E  E  E  E  E  E   
--------------------------|---------------------------|
--------------------------|---------------------------|
--------------------------|---------3-----2--------0--|
--1--1--1--1--1--1--1--1--|------------------0--------|
--------------------------|--0-0-0-----0--------0-----|
 
 
  E  E  E  E  E  E  E  E     Q     Q     Q     Q        Q     Q    Q    Q     
--------------------------|-------------------------|------------------------|
--------------------------|-------------------------|------------------------|
--------------------------|-------------------------|------------------------|
--------------------------|-------10----12----------|--10----12----7----8----|
--5--5--5--5--5--5--5--5--|--8----------------10----|------------------------|
 
 
  S S E  H        S S E     H        S S E  S S E     S S E  H        S S E   
-------------------------|-------------------------|-------------------------|
-------------------------|-------------------------|-------------------------|
-------------------------|-------------------------|-------------------------|
-------------------------|-------------------------|-------------------------|
--0-0-0-----------0-0-0--|-----------0-0-0--0-0-0--|--0-0-0-----------0-0-0--|
 
 
  H        S S S S S S S S    W                   W                 
---------------------------|-------------------|-------------------|
---------------------------|-------------------|-------------------|
---------------------------|-------------------|-------------------|
---------------------------|-------------------|-------------------|
-----------0-0-0---0-0-0---|--0----------------|--L----------------|
 
 
  W                               S S Q    S S S S S S S S E   
-------------------|-----|-----|------------------------------|
-------------------|-----|-----|------------------------------|
-------------------|-----|-----|------------------------------|
-------------------|-----|-----|------------------------------|
--L----------------|-----|-----|--0-0------0-0-0-0-0-0-0------|
 
 
  E  S E  S E  E  S E  S E     H        S S S S E  E     H        H         
----------------------------|-------------------------|--------------------|
----------------------------|-------------------------|--------------------|
----------------------------|-------------------------|--------------------|
----------------------------|-------------------------|--------------------|
-----0-0--0-0--0--0-0--0-0--|-----------0-0-0-0-0--0--|--8--------5--------|
 
 
  S S Q    S S S S S S S S E     E  S E  S E  E  S E  S E   
------------------------------|----------------------------|
------------------------------|----------------------------|
------------------------------|----------------------------|
------------------------------|----------------------------|
--0-0------0-0-0-0-0-0-0------|-----0-0--0-0--0--0-0--0-0--|
 
 
  H        S S S S E  E     H        H                     
-------------------------|--------------------|-----------|
-------------------------|--------------------|-----------|
-------------------------|--------------------|-----------|
-------------------------|--------------------|-----------|
-----------0-0-0-0-0--0--|--8--------5--------|-----------|
 
 
  S S Q    S S S S S S Q       E  S E  S E  E  S E  S E   
----------------------------|----------------------------|
----------------------------|----------------------------|
----------------------------|----------------------------|
----------------------------|----------------------------|
--1-1-L----1-1-1-1-1-1-1----|--L--1-1--1-1--1--1-1--1-1--|
 
 
  H        S S S S E  E     H        H           S S Q    S S S S S S S S E   
-------------------------|--------------------|------------------------------|
-------------------------|--------------------|------------------------------|
-------------------------|--------------------|------------------------------|
-------------------------|--------------------|------------------------------|
--L--------1-1-1-1-1--1--|--8--------5--------|--0-0------0-0-0-0-0-0-0------|
 
 
  E  S E  S E  E  S E  S E     H        S S S S E  E     H        H         
----------------------------|-------------------------|--------------------|
----------------------------|-------------------------|--------------------|
----------------------------|-------------------------|--------------------|
----------------------------|-------------------------|--------------------|
-----0-0--0-0--0--0-0--0-0--|-----------0-0-0-0-0--0--|--8--------5--------|
 
 
  W                   H           H.           E  E     E  S S E  E  E  E   
-------------------|-----------|---------------------|---------------------|
-------------------|-----------|---------------------|---------------------|
-------------------|-----------|---------------------|------------7--8--7--|
-------------------|-----------|---------------------|---------------------|
-------------------|-----------|------------------0--|--0--0-0-0-----------|
 
 
  E  E  E  E  E  E  E  E     S S E  Q    Q       S S E   E   E  E   E  E  E   
--------------------------|-------------------|------------------------------|
--------------------------|-------------------|------------------------------|
--------------------------|-------------------|------------------------------|
--8--5-----7-----3--5-----|---------8----7----|---------10--12-----12--8-----|
--------0-----0--------0--|--0-0-0------------|--0-0-0----------0---------0--|
 
 
  E  S S E  E  E  E  E  E     E  Q.     Q.     E     E  Q.     Q.     E   
---------------------------|----------------------|----------------------|
---------------------------|----------------------|----------------------|
------------7--8--7--------|----------------------|----------------------|
---------------------8-----|----------------------|----------------------|
--0--0-0-0--------------8--|--L--8------8------5--|--L--5------5------0--|
 
 
  E  E   E   E  E  E   E  E     E  S S E  E  E  E     E  E  E  E  E  E  E  E   
-----------------------------|---------------------|--------------------------|
-----------------------------|---------------------|--------------------------|
-----------------------------|------------7--8--7--|--------------------------|
--------10--12-----8--10-----|---------------------|--8--5-----7-----3--5-----|
--L--0----------0---------0--|--0--0-0-0-----------|--------0-----0--------0--|
 
 
  S S E  Q    Q       S S E   E   E  E   E  E  E     E  S S E  E  E  E  E  E   
-------------------|------------------------------|---------------------------|
-------------------|------------------------------|---------------------------|
-------------------|------------------------------|------------7--8--7--------|
---------8----7----|---------10--12-----12--8-----|---------------------8-----|
--0-0-0------------|--0-0-0----------0---------0--|--0--0-0-0--------------8--|
 
 
  E  Q.     Q.     E     E  Q.     H           E  E  S S S S E  Q.      
----------------------|---------------------|--------------------------|
----------------------|---------------------|--------------------------|
----------------------|---------------------|--------------------------|
----------------------|---------------------|--------------------------|
--L--8------8------5--|--L--5------5--------|--0--0--0-0-0-0-0---------|
 
 
  E  S E  S E  S S E  S S E     Q.     E  S S S S E  E   
-----------------------------|--------------------------|
-----------------------------|--------------------------|
-----------------------------|--------------------------|
-----------------------------|--------------------------|
-----0-0--0-0--0-0-0--0-0-0--|---------0--0-0-0-0-0-----|
 
 
  Q.     E  S E  S E  E     E  E  S S S S E  Q.      
-------------------------|--------------------------|
-------------------------|--------------------------|
-------------------------|--------------------------|
-------------------------|--------------------------|
---------0--0-0--0-0-----|--0--0--0-0-0-0-0---------|
 
 
  E  S E  S E  S S E  S S E     Q.     E  S S S S E  E   
-----------------------------|--------------------------|
-----------------------------|--------------------------|
-----------------------------|--------------------------|
-----------------------------|--------------------------|
-----0-0--0-0--0-0-0--0-0-0--|---------0--0-0-0-0-0-----|
 
 
  Q.     E  S E  S E  E     W                   E  E  S S S S E  Q.      
-------------------------|-------------------|--------------------------|
-------------------------|-------------------|--------------------------|
-------------------------|-------------------|--------------------------|
-------------------------|-------------------|--------------------------|
---------0--0-0--0-0-----|--0----------------|--0--0--0-0-0-0-0---------|
 
 
  E  S E  S E  S S E  S S E     Q.     E  S S S S E  E   
-----------------------------|--------------------------|
-----------------------------|--------------------------|
-----------------------------|--------------------------|
-----------------------------|--------------------------|
-----0-0--0-0--0-0-0--0-0-0--|---------0--0-0-0-0-0-----|
 
 
  Q.     E  S E  S E  E     E  E  S S S S E  Q.      
-------------------------|--------------------------|
-------------------------|--------------------------|
-------------------------|--------------------------|
-------------------------|--------------------------|
---------0--0-0--0-0-----|--0--0--0-0-0-0-0---------|
 
 
  E  S E  S E  S S E  S S E     Q.     E  S S S S E  E   
-----------------------------|--------------------------|
-----------------------------|--------------------------|
-----------------------------|--------------------------|
-----------------------------|--------------------------|
-----0-0--0-0--0-0-0--0-0-0--|---------0--0-0-0-0-0-----|
 
 
                            >                                    
  Q.     E  S E  S E  E     H           E  E  S S S S E  Q.      
-------------------------|-----------|--------------------------|
-------------------------|-----------|--------------------------|
-------------------------|-----------|--------------------------|
-------------------------|--0--------|--------------------------|
---------0--0-0--0-0-----|--0--------|--0--0--0-0-0-0-0---------|
 
 
  E  S E  S E  S S E  S S E     Q.     E  S S S S Q     
-----------------------------|-------------------------|
-----------------------------|-------------------------|
-----------------------------|-------------------------|
-----------------------------|-------------------------|
-----0-0--0-0--0-0-0--0-0-0--|---------0--0-0-0-0-0----|
 
 
  Q.     E  S E  S E  E     E  E  S S S S E  Q.      
-------------------------|--------------------------|
-------------------------|--------------------------|
-------------------------|--------------------------|
-------------------------|--------------------------|
--L------0--0-0--0-0-----|--0--0--0-0-0-0-0---------|
 
 
  E  S E  S E  S S E  S S E     Q.     E  S S S S Q     
-----------------------------|-------------------------|
-----------------------------|-------------------------|
-----------------------------|-------------------------|
-----------------------------|-------------------------|
-----0-0--0-0--0-0-0--0-0-0--|---------0--0-0-0-0-0----|
 
 
  Q.     E  S E  S  Q         E   E   E   E   E   E   E   E   
--------------------------|----------------------------------|
--------------------------|----------------------------------|
--------------------------|----------------------------------|
--------------------------|----------------------------------|
--L------0--0-0--0-12\----|--12--12--12--12--12--12--12--12--|
 
 
   E  E  E  E  E  E  E  E     E  E  E  E  E  E  E  E   
---------------------------|--------------------------|
---------------------------|--------------------------|
---------------------------|--------------------------|
---------------------------|--------------------------|
--12--5--5--5--5--5--5--5--|--8--8--8--8--8--8--8--8--|
 
 
  E  E  E  E  E  E  E  E      E   E   E   E   E   E   E   E   
--------------------------|----------------------------------|
--------------------------|----------------------------------|
--------------------------|----------------------------------|
--------------------------|----------------------------------|
--8--8--8--8--8--8--8--8--|--12--12--12--12--12--12--12--12--|
 
 
   E  E  E  E  E  E  E  E     E  E  E  E  E  E  E  E   
---------------------------|--------------------------|
---------------------------|--------------------------|
---------------------------|--------------------------|
---------------------------|--------------------------|
--12--5--5--5--5--5--5--5--|--8--8--8--8--8--8--8--8--|
 
 
  E   E   E   E   E   E   E   E     E  E  H        S S E   
---------------------------------|------------------------|
---------------------------------|------------------------|
---------------------------------|------------------------|
---------------------------------|------------------------|
--8--10--10--10--10--10--10--10--|--0--0--L--------0-0-0--|
 
 
  H        S S E  Q       E  E  H        S S E     W                 
-----------------------|------------------------|-------------------|
-----------------------|------------------------|-------------------|
-----------------------|------------------------|-------------------|
-----------------------|------------------------|-------------------|
--L--------0-0-0-------|--0--0--L--------0-0-0--|-------------------|
 
 
  E  E  H        S S E     H        S S E  Q       E  E  H        S S E   
------------------------|-----------------------|------------------------|
------------------------|-----------------------|------------------------|
------------------------|-----------------------|------------------------|
------------------------|-----------------------|------------------------|
--0--0--L--------0-0-0--|--L--------0-0-0-------|--0--0--L--------0-0-0--|
 
 
  W                   W                   W                 
-------------------|-------------------|-------------------|
-------------------|-------------------|-------------------|
-------------------|-------------------|-------------------|
-------------------|-------------------|-------------------|
-------------------|--0----------------|-------------------|
 
 
  E  E  E  E  E  E  E  E     E  E  E  E  E  E  E  E   
--------------------------|--------------------------|
--------------------------|--------------------------|
--------3-----2-----------|--------------------------|
-----------------0-----3--|--1--1--1--1--1--1--1--1--|
--0--0-----0--------0-----|--------------------------|
 
 
  S S E  E  E  E  E  E  E     E  E  E  E  E  E  E  E   
---------------------------|--------------------------|
---------------------------|--------------------------|
---------3-----2--------0--|--------------------------|
------------------0--------|--------------------------|
--0-0-0-----0--------0-----|--5--5--5--5--5--5--5--5--|
 
 
  Q     Q     Q     Q        Q     Q    Q    Q       S S E  E  E  E  E  E  E   
-------------------------|------------------------|---------------------------|
-------------------------|------------------------|---------------------------|
-------------------------|------------------------|---------3-----2--------3--|
-------10----12----------|--10----12----7----8----|------------------0--------|
--8----------------10----|------------------------|--0-0-0-----0--------0-----|
 
 
  E  E  E  E  E  E  E  E     E  E  E  E  E  E  E  E   
--------------------------|--------------------------|
--------------------------|--------------------------|
--------------------------|--------3-----2-----------|
--------------------------|-----------------0-----3--|
--5--5--5--5--5--5--5--5--|--0--0-----0--------0-----|
 
 
  E  E  E  E  E  E  E  E     S S E  E  E  E  E  E  E   
--------------------------|---------------------------|
--------------------------|---------------------------|
--------------------------|---------3-----2--------0--|
--1--1--1--1--1--1--1--1--|------------------0--------|
--------------------------|--0-0-0-----0--------0-----|
 
 
  E  E  E  E  E  E  E  E     Q     Q     Q     Q        Q     Q    Q    Q     
--------------------------|-------------------------|------------------------|
--------------------------|-------------------------|------------------------|
--------------------------|-------------------------|------------------------|
--------------------------|-------10----12----------|--10----12----7----8----|
--5--5--5--5--5--5--5--5--|--8----------------10----|------------------------|
 
 
              S S E  S S S S S S S S Q       E  S S S S S S S S E  S S E   
-----------|------------------------------|-------------------------------|
-----------|------------------------------|-------------------------------|
-----------|------------------------------|-------------------------------|
-----------|------------------------------|-------------------------------|
-----------|--0-0-0--0-0---0-0-L-0-0------|-----0-0---0-0---0-0-0--0-0----|
 
 
  S S S S S S S S H           S S E  S S E  S S S S S S E   
---------------------------|-------------------------------|
---------------------------|-------------------------------|
---------------------------|-------------------------------|
---------------------------|-------------------------------|
--0---0-0---0-0------------|--0-0-0--0-0-0----0-0-L-0-0----|
 
 
  S S E  S S S S S S S S Q       E  S S S S S S S S E  S S E   
------------------------------|-------------------------------|
------------------------------|-------------------------------|
------------------------------|-------------------------------|
------------------------------|-------------------------------|
--0-0-0--0-0---0-0-L-0-0------|-----0-0---0-0---0-0-0--0-0----|
 
 
  S S S S S S S S H           S S E  S S E  S S S S S S E                       
---------------------------|-------------------------------|-------------------|
---------------------------|-------------------------------|-------------------|
---------------------------|-------------------------------|-------------------|
---------------------------|-------------------------------|-------------------|
--0---0-0---0-0------------|--0-0-0--0-0-0----0-0-L-0-0----|-------------------|
 
 
                      E  E  E  E  E  E  E  E     E  E  E  E  E  E  E  E   
-------------------|--------------------------|--------------------------|
-------------------|--------------------------|--------------------------|
-------------------|--------------------------|--------------------------|
-------------------|--------------------------|--------------------------|
-------------------|--8--8--8--8--8--8--8--8--|--8--8--8--8--8--8--8--8--|
 
 
   E   E   E   E   E   E   E   E      E  E  E  E  E  E  E  E   
----------------------------------|---------------------------|
----------------------------------|---------------------------|
----------------------------------|---------------------------|
----------------------------------|---------------------------|
--12--12--12--12--12--12--12--12--|--12--5--5--5--5--5--5--5--|
 
 
  E  E  E  E  E  E  E  E     E   E   E   E   E   E   E   E   
--------------------------|---------------------------------|
--------------------------|---------------------------------|
--------------------------|---------------------------------|
--------------------------|---------------------------------|
--8--8--8--8--8--8--8--8--|--8--10--10--10--10--10--10--10--|
 
 
   E   E   E   E   E   E   E   E      E  E  E  E  E  E  E  E   
----------------------------------|---------------------------|
----------------------------------|---------------------------|
----------------------------------|---------------------------|
----------------------------------|---------------------------|
--12--12--12--12--12--12--12--12--|--12--5--5--5--5--5--5--5--|
 
 
  E  E  E  E  E  E  E  E     E  E  E  E  E  E  E  E   
--------------------------|--------------------------|
--------------------------|--------------------------|
--------------------------|--------------------------|
--------------------------|--------------------------|
--8--8--8--8--8--8--8--8--|--8--8--8--8--8--8--8--8--|
 
 
   E   E   E   E   E   E   E   E      E  E  E  E  E  E  E  E   
----------------------------------|---------------------------|
----------------------------------|---------------------------|
----------------------------------|---------------------------|
----------------------------------|---------------------------|
--12--12--12--12--12--12--12--12--|--12--5--5--5--5--5--5--5--|
 
 
  E  E  E  E  E  E  E  E     E   E   E   E   E   E   E   E               
--------------------------|---------------------------------|-----------|
--------------------------|---------------------------------|-----------|
--------------------------|---------------------------------|-----------|
--------------------------|---------------------------------|-----------|
--8--8--8--8--8--8--8--8--|--8--10--10--10--10--10--10--10--|-----------|
 
 
  S S Q    S S S S S S Q       E  S E  S E  E  S E  S E     W                 
----------------------------|----------------------------|-------------------|
----------------------------|----------------------------|-------------------|
----------------------------|----------------------------|-------------------|
----------------------------|----------------------------|-------------------|
--1-1-L----1-1-1-1-1-1-1----|--L--1-1--1-1--1--1-1--1-1--|--0----------------|
 
 
  W                   W                  
-------------------|-------------------||
-------------------|-------------------||
-------------------|-------------------||
-------------------|-------------------||
--L----------------|--L----------------||
 
 
 
 
Duration Legend
---------------
W - whole
H - half
Q - quarter
E - 8th
S - 16th
T - 32nd
X - 64th
. - note dotted
|-n-|  - n-tuplets
 
 
Tablature Legend
----------------
L - tied note
x - dead note
g - grace note
(n) - ghost note
> - accentuded note
NH - natural harmonic
AH - artificial harmonic
TH - tapped harmonic
SH - semi harmonic
PH - pitch harmonic
h - hammer on
p - pull off
b - bend
br - bendRelease
pb - preBend
pbr - preBendRelease
brb - bendReleaseBend
\n/ - tremolo bar dip
\n - tremolo bar dive
-/n - tremolo bar Release up
/n\ - tremolo bar inverted dip
/n - tremolo bar return
-\n - tremolo bar Release down
S - shift slide
s - legato slide
/ -  slide into from below or out of upwards
\ -  slide into from above or out of downwards
~ - vibrato
W - wide vibrato
tr - tril'
TP - tremolo picking
T - tapping
S - slap
P - pop
< - fade in
^ - brush up
v - brush down
comments
We did not receive enough feedback on this tab! Please rate:
print report bad tab
1 2 3 4 5
I want to post or [tab]
guest
You may want to rate the tab now too:
select rating
Please do not post tabs as comments. Select "correction" instead!