Oops, an error
Loading. Please wait.

Irreversible Tab

91 views 1 this week
no commentswrite comment
1 2 3 4 5
please rate
add to favorites launch autoscroll
font size
0
reset
Autoscroll
+/-
esc
set tempo
stop
Contributor
Difficulty
Tuning
novice
C G C F A D
WARNING: You are trying to view
                                    content from Ultimate-Guitar.com
                                    in an unauthorized application,
                                    which is prohibited.

                                    Please use an official Ultimate
                                    Guitar Tabs application for iPhone,
                                    iPad or Android to access legitimate
                                    chords, guitar, bass, and drum tabs
                                    from Ultimate-Guitar.com database.

                                    Type "ultimate guitar tabs" in Apple
                                    App Store's or Android Market's
                                    search to find the application.
  Irreversible                                   


                                                            The Eleventh Failure
GTR L
                          E   E   E   E   E   E   
D||-------------------|--------------------------|
A||-------------------|--------------------------|
F||-------------------|--10--10--10--10--10--10--|
C||-------------------|--------------------------|
G||-------------------|---8---8---8---8---8---8--|
C||-------------------|--------------------------|
 
 
   E   E   E   E   E   E   E   E     E  E  E  E  E  E   
----------------------------------|--------------------|
----------------------------------|--------------------|
--10--10--10--10--10--10--10--10--|--7--7--7--7--7--7--|
----------------------------------|--------------------|
---8---8---8---8---8---8---8---8--|--5--5--5--5--5--5--|
----------------------------------|--------------------|
 
 
                                    PM PM       PM        PM  
  E   E   E   E   E   E   E   E     E  E  E  E  E   E  E  E   
---------------------------------|---------------------------|
---------------------------------|---------------------------|
--7--14--14--14--14--10--10--10--|---------------------------|
---------------------------------|--------7--5------8--7-----|
--5--12--12--12--12---8---8---8--|--------8--7-----10--8-----|
---------------------------------|--0--0--------0---------0--|
 
 
          PM PM                  PM PM       PM        PM  
   E   E  E  E   E   E  E  E     E  E  E  E  E   E  E  E   
------------------------------|---------------------------|
------------------------------|---------------------------|
------------------------------|---------------------------|
--10---8--------12--10--8--7--|--------7--5------8--7-----|
--12--10----------------------|--------8--7-----10--8-----|
----------0--0----------------|--0--0--------0---------0--|
 
 
      PM     PM                                          
   E  E   E  E  E   E  E  E      E   E   E   E   E   E   
-----------------------------|--------------------------|
-----------------------------|--------------------------|
-----------------------------|--10--10--10--10--10--10--|
--10-----12-----8--10--8--7--|--------------------------|
--12-----13------------------|---8---8---8---8---8---8--|
------0------0---------------|--------------------------|
 
 
   E   E   E   E   E   E   E   E     E  E  E  E  E  E   
----------------------------------|--------------------|
----------------------------------|--------------------|
--10--10--10--10--10--10--10--10--|--7--7--7--7--7--7--|
----------------------------------|--------------------|
---8---8---8---8---8---8---8---8--|--5--5--5--5--5--5--|
----------------------------------|--------------------|
 
 
  E   E   E   E   E   E   E   E     W                   W                 
---------------------------------|-------------------|-------------------|
---------------------------------|-------------------|-------------------|
--7--14--14--14--14--10--10--10--|-------------------|-------------------|
---------------------------------|--0----------------|--L----------------|
--5--12--12--12--12---8---8---8--|--0----------------|--L----------------|
---------------------------------|--0----------------|--L----------------|
 
 
  PM PM                                                       
  E  E  H.              W                   W                 
---------------------|-------------------|-------------------|
---------------------|-------------------|-------------------|
---------------------|-------------------|-------------------|
---------------------|-------------------|--0----------------|
--0--0---------------|-------------------|--0----------------|
--0--0---------------|-------------------|--0----------------|
 
 
   pick slide                                                                   
   |------3------|    |---3---|  |---3---|    |---3---|  |---3---|    |---3---| 
   T          T  T    T  T    T  T    T  T    T  T    T  T    T  T    T  T    T 
--------------------------------------------------------------------------------
--------------------------------------------------------------------------------
--------------------------------------------------------------------------------
--24pb-------24-23pb-23-22pb-22-21pb-21-20pb-20-19pb-19-18pb-18-----------------
----------------------------------------------------------------22pb-22-21pb-21-
--------------------------------------------------------------------------------
 
 
  S S S S  S  S  S  S  S  S  S  S  S  S  S  S  
----------------------------------------------|
----------------------------------------------|
----------------------------------------------|
----------------------------------------------|
----------10-10-10-10-12-12-12-12-------------|
--8-8-8-8-------------------------10-10-10-10-|
 
 
                                             PM PM PM    PM       PM     
   S  S  S  S  S  S  S  S S S S S S S S S    S  S  E  E  E  E  E  E  E   
------------------------------------------|-----------------------------|
------------------------------------------|-----------------------------|
------------------------------------------|-----------------------------|
------------------------------------------|-----------7-----5--------7--|
--10-10-10-10-12-12-12-12-7-7-7-7-8-8-8-8-|--------------------3--------|
------------------------------------------|--0--0--0-----0--------0-----|
 
 
  PM                         PM PM    PM       PM     
  E  E  E  E  E  E  E  E     E  E  E  E  E  E  E  E   
--------------------------|--------------------------|
--------------------------|--------------------------|
--------------------------|--------------------------|
-----3--5--7--2--3--5--3--|--------7-----5--------2--|
--------------------------|-----------------3--------|
--5-----------------------|--0--0-----0--------0-----|
 
 
  PM    PM PM                PM PM PM    PM       PM     
  E  E  E  E  E  E  E  E     S  S  E  E  E  E  E  E  E   
--------------------------|-----------------------------|
--------------------------|-----------------------------|
--------------------------|-----------------------------|
-----3--------7--8-----5--|-----------7-----5--------3--|
--------------------3-----|--------------------3--------|
--8-----8--8--------------|--0--0--0-----0--------0-----|
 
 
  PM                                                                       
  E  E  E  E  E   E  E  E      S  S  S  S S S S S  S  S  S  S  S  S  S  S  
---------------------------|----------------------------------------------|
---------------------------|----------------------------------------------|
---------------------------|----------------------------------------------|
-----7--5--3--8--10--8--7--|--------------8-8-8-8-10-10-10-10-------------|
---------------------------|----------------------------------------------|
--5------------------------|--12-12-12-12---------------------14-14-14-14-|
 
 
                                                 PM PM PM    PM       PM     
  S S S S  S  S  S  S  S  S  S  S  S  S  S  S    S  S  E  E  E  E  E  E  E   
----------------------------------------------|-----------------------------|
----------------------------------------------|-----------------------------|
----------------------------------------------|-----------------------------|
--8-8-8-8-10-10-10-10-------------------------|-----------7-----5--------7--|
----------------------10-10-10-10-12-12-12-12-|--------------------3--------|
----------------------------------------------|--0--0--0-----0--------0-----|
 
 
  PM                         PM PM    PM       PM     
  E  E  E  E  E  E  E  E     E  E  E  E  E  E  E  E   
--------------------------|--------------------------|
--------------------------|--------------------------|
--------------------------|--------------------------|
-----3--5--7--2--3--5--3--|--------7-----5--------2--|
--------------------------|-----------------3--------|
--5-----------------------|--0--0-----0--------0-----|
 
 
  PM    PM PM                PM PM PM    PM       PM     
  E  E  E  E  E  E  E  E     S  S  E  E  E  E  E  E  E   
--------------------------|-----------------------------|
--------------------------|-----------------------------|
--------------------------|-----------------------------|
-----3--------7--8-----5--|-----------7-----5--------3--|
--------------------3-----|--------------------3--------|
--8-----8--8--------------|--0--0--0-----0--------0-----|
 
 
  PM                                                                       
  E  E  E  E  E   E  E  E      S  S  S  S S S S S  S  S  S  S  S  S  S  S  
---------------------------|----------------------------------------------|
---------------------------|----------------------------------------------|
---------------------------|----------------------------------------------|
-----7--5--3--8--10--8--7--|--------------8-8-8-8-10-10-10-10-------------|
---------------------------|----------------------------------------------|
--5------------------------|--12-12-12-12---------------------14-14-14-14-|
 
 
                                                 PM PM PM    PM       PM PM PM  
  S S S S  S  S  S  S  S  S  S  S  S  S  S  S    S  S  E  E  E  E  E  S  S  E   
----------------------------------------------|--------------------------------|
----------------------------------------------|--------------------------------|
----------------------------------------------|--------------------------------|
--8-8-8-8-10-10-10-10-------------------------|--------------------------------|
----------------------10-10-10-10-12-12-12-12-|--0--0--0--8-----7--0--0--0--0--|
----------------------------------------------|--0--0--0-----0--------0--0--0--|
 
 
     PM       PM PM PM PM PM PM    PM PM PM          PM PM PM  
  E  E  E  E  S  S  E  S  S  E     S  S  E  H        S  S  E   
--------------------------------|-----------------------------|
--------------------------------|-----------------------------|
--------------------------------|-----------------------------|
--------------------------------|-----------------------------|
--8-----7--0--0--0--0--0--0--0--|--0--0--0-----------0--0--0--|
-----0--------0--0--0--0--0--0--|--0--0--0-----------0--0--0--|
 
 
           PM PM PM   PM PM PM      PM PM PM    PM       PM PM PM  
  H        S  S  S  S S  S  S  S    S  S  E  E  E  E  E  S  S  E   
---------------------------------|--------------------------------|
---------------------------------|--------------------------------|
---------------------------------|--------------------------------|
---------------------------------|--------------------------------|
-----------0--0--0----0--0--0----|--0--0--0--8-----7--0--0--0--0--|
-----------0--0--0----0--0--0----|--0--0--0-----0--------0--0--0--|
 
 
     PM       PM PM PM PM PM PM    PM PM PM    PM       PM PM PM  
  E  E  E  E  S  S  E  S  S  E     S  S  E  E  E  E  E  S  S  E   
--------------------------------|--------------------------------|
--------------------------------|--------------------------------|
--------------------------------|--------------------------------|
--------------------------------|--------------------------------|
--8-----7--0--0--0--0--0--0--0--|--0--0--0--8-----7--0--0--0--0--|
-----0--------0--0--0--0--0--0--|--0--0--0-----0--------0--0--0--|
 
 
                                          PM PM      PM PM PM PM PM PM PM      
  W                   W                   S  S  Q    S  S  S  S  S  S  S  E.   
-------------------|-------------------|--------------------------------------|
-------------------|-------------------|--------------------------------------|
-------------------|-------------------|--------------------------------------|
-------------------|-------------------|--------------------------------------|
-------------------|-------------------|--0--0-------0--0--0--0--0--0--0------|
-------------------|-------------------|--0--0-------0--0--0--0--0--0--0------|
 
 
     PM PM PM PM PM PM PM PM PM             PM PM PM PM PM PM  
  E  S  E  S  E  E  S  E  S  E     H        S  S  S  S  E  E   
--------------------------------|-----------------------------|
--------------------------------|-----------------------------|
--------------------------------|-----------------------------|
--------------------------------|-----------------------------|
-----0--0--0--0--0--0--0--0--0--|-----------0--0--0--0--0--0--|
-----0--0--0--0--0--0--0--0--0--|-----------0--0--0--0--0--0--|
 
 
                             PM PM      PM PM PM PM PM PM PM      
  E  E  E  E  E  E  E  E     S  S  Q    S  S  S  S  S  S  S  E.   
--------------------------|--------------------------------------|
--------------------------|--------------------------------------|
--------------------------|--------------------------------------|
-----2--3--5-----3--7--5--|--------------------------------------|
--5-----------1-----------|--0--0-------0--0--0--0--0--0--0------|
--------------------------|--0--0-------0--0--0--0--0--0--0------|
 
 
     PM PM PM PM PM PM PM PM PM             PM PM PM PM PM PM  
  E  S  E  S  E  E  S  E  S  E     H        S  S  S  S  E  E   
--------------------------------|-----------------------------|
--------------------------------|-----------------------------|
--------------------------------|-----------------------------|
--------------------------------|-----------------------------|
-----0--0--0--0--0--0--0--0--0--|-----------0--0--0--0--0--0--|
-----0--0--0--0--0--0--0--0--0--|-----------0--0--0--0--0--0--|
 
 
                                         PM PM      PM PM PM PM PM PM PM      
  E  E  E  E  E  E  E  E                 S  S  Q    S  S  S  S  S  S  S  E.   
--------------------------|-----------|--------------------------------------|
--------------------------|-----------|--------------------------------------|
--------------------------|-----------|--------------------------------------|
-----2--3--5-----3--5--7--|-----------|--------------------------------------|
--5-----------1-----------|-----------|--0--0--L----0--0--0--0--0--0--0--L---|
--------------------------|-----------|--1--1--L----1--1--1--1--1--1--1--L---|
 
 
     PM PM PM PM PM PM PM PM PM             PM PM PM PM PM PM  
  E  S  E  S  E  E  S  E  S  E     H        S  S  S  S  E  E   
--------------------------------|-----------------------------|
--------------------------------|-----------------------------|
--------------------------------|-----------------------------|
--------------------------------|-----------------------------|
--L--0--0--0--0--0--0--0--0--0--|--L--------0--0--0--0--0--0--|
--L--1--1--1--1--1--1--1--1--1--|--L--------1--1--1--1--1--1--|
 
 
                      TH       PM PM      PM PM PM PM PM PM PM      
  E  E  E  E  E  E    Q        S  S  Q    S  S  S  S  S  S  S  E.   
----------------------------|--------------------------------------|
----------------------------|--------------------------------------|
----------------------------|--------------------------------------|
-----2--3--5-----3----------|--------------------------------------|
--3-----------1-----<>5~----|--0--0-------0--0--0--0--0--0--0------|
----------------------------|--0--0-------0--0--0--0--0--0--0------|
 
 
     PM PM PM PM PM PM PM PM PM             PM PM PM PM PM PM  
  E  S  E  S  E  E  S  E  S  E     H        S  S  S  S  E  E   
--------------------------------|-----------------------------|
--------------------------------|-----------------------------|
--------------------------------|-----------------------------|
--------------------------------|-----------------------------|
-----0--0--0--0--0--0--0--0--0--|-----------0--0--0--0--0--0--|
-----0--0--0--0--0--0--0--0--0--|-----------0--0--0--0--0--0--|
 
 
  E  E  E  E  E  E  E  E     W                   H         
--------------------------|-------------------|-----------|
--------------------------|-------------------|-----------|
--------------------------|-------------------|-----------|
-----2--3--5-----3--7--5--|-------------------|-----------|
--5-----------1-----------|-------------------|-----------|
--------------------------|-------------------|-----------|
 
 
                   PM    PM PM PM PM                   PM    PM       PM  
  H.           E.  S     E  S  S  E  E  E  E     E  E  E  E  E  E  E  E   
----------------------|-----------------------|--------------------------|
----------------------|-----------------------|--------------------------|
----------------------|-----------------------|--------------------------|
----------------------|--------------7--8--7--|--------------------------|
----------------------|-----------------------|--8--5-----7-----3--5-----|
-------------------0--|--0--0--0--0-----------|--------0-----0--------0--|
 
 
  PM PM PM                    PM PM PM         PM        PM  
  S  S  E  S S S S S S S S    S  S  E   E   E  E   E  E  E   
---------------------------|--------------------------------|
---------------------------|--------------------------------|
---------------------------|--------------------------------|
---------------------------|--------------------------------|
-----------8-8-8-8-7-7-7-7-|-----------10--12-----12--8-----|
--0--0--0------------------|--0--0--0----------0---------0--|
 
 
  PM PM PM PM                      PM     PM              
  E  S  S  E  E  E  E  E  E     E  E   E  E  E  E  E  E   
-----------------------------|---------------------------|
-----------------------------|---------------------------|
-----------------------------|---------------------------|
--------------7--8--7--------|---------------------------|
-----------------------8--8--|--L-----12-----5--7--8--5--|
--0--0--0--0--------------8--|--L--8------8-----------5--|
 
 
     PM    PM                   PM         PM        PM  
  E  E  E  E  E  E  E  E     E  E   E   E  E  E   E  E   
--------------------------|-----------------------------|
--------------------------|-----------------------------|
--------------------------|-----------------------------|
--------------------------|-----------------------------|
--L-----8-----3--5--7--0--|--L-----10--12-----8--10-----|
--L--5-----5-----------0--|--L--0----------0---------0--|
 
 
  PM PM PM PM                   PM    PM       PM    PM PM PM                  
  E  S  S  E  E  E  E     E  E  E  E  E  E  E  E     S  S  E  S S S S S S S S  
-----------------------|--------------------------|---------------------------|
-----------------------|--------------------------|---------------------------|
-----------------------|--------------------------|---------------------------|
--------------7--8--7--|--------------------------|---------------------------|
-----------------------|--8--5-----7-----3--5-----|-----------8-8-8-8-7-7-7-7-|
--0--0--0--0-----------|--------0-----0--------0--|--0--0--0------------------|
 
 
  PM PM PM         PM        PM    PM PM PM PM                 
  S  S  E   E   E  E   E  E  E     E  S  S  E  E  E  E  E  E   
--------------------------------|-----------------------------|
--------------------------------|-----------------------------|
--------------------------------|-----------------------------|
--------------------------------|--------------7--8--7--------|
-----------10--12-----12--8-----|-----------------------8--8--|
--0--0--0----------0---------0--|--0--0--0--0--------------8--|
 
 
     PM     PM                   PM    PM              
  E  E   E  E  E  E  E  E     E  E  E  E  E  E  E  E   
---------------------------|--------------------------|
---------------------------|--------------------------|
---------------------------|--------------------------|
---------------------------|--------------------------|
--L-----12-----5--7--8--5--|--L-----8-----3--5--7-----|
--L--8------8-----------5--|--L--5-----5-----------8--|
 
 
  E  E  S S S S E  Q.        E  S E  S E  S S E  S S E   
--------------------------|-----------------------------|
--------------------------|-----------------------------|
--------------------------|-----------------------------|
--------------------------|-----------------------------|
--0--0--0-0-0-0-0---------|-----0-0--0-0--0-0-0--0-0-0--|
--0--0--0-0-0-0-0---------|-----0-0--0-0--0-0-0--0-0-0--|
 
 
  Q.     E  S S S S E  E     Q.     E  S E  S E  E     E  E  S S S S E  Q.      
--------------------------|-------------------------|--------------------------|
--------------------------|-------------------------|--------------------------|
--------------------------|-------------------------|--------------------------|
--------------------------|-------------------------|--------------------------|
---------0--0-0-0-0-0-----|---------0--0-0--0-0-----|--0--0--0-0-0-0-0---------|
---------0--0-0-0-0-0-----|---------0--0-0--0-0-----|--0--0--0-0-0-0-0---------|
 
 
  E  S E  S E  S S E  S S E     Q.     E  S S S S E  E   
-----------------------------|--------------------------|
-----------------------------|--------------------------|
-----------------------------|--------------------------|
-----------------------------|--------------------------|
-----0-0--0-0--0-0-0--0-0-0--|---------0--0-0-0-0-0-----|
-----0-0--0-0--0-0-0--0-0-0--|---------0--0-0-0-0-0-----|
 
 
                            PM                                           
  Q.     E  S E  S E  E     W                   E  E  S S S S E  Q.      
-------------------------|-------------------|--------------------------|
-------------------------|-------------------|--------------------------|
-------------------------|-------------------|--------------------------|
-------------------------|-------------------|--------------------------|
---------0--0-0--0-0-----|--0----------------|--0--0--0-0-0-0-0---------|
---------0--0-0--0-0-----|--0----------------|--0--0--0-0-0-0-0---------|
 
 
  E  S E  S E  S S E  S S E     Q.     E  S S S S E  E   
-----------------------------|--------------------------|
-----------------------------|--------------------------|
-----------------------------|--------------------------|
-----------------------------|--------------------------|
-----0-0--0-0--0-0-0--0-0-0--|---------0--0-0-0-0-0-----|
-----0-0--0-0--0-0-0--0-0-0--|---------0--0-0-0-0-0-----|
 
 
  Q.     E  S E  S E  E     E  E  S S S S E  Q.      
-------------------------|--------------------------|
-------------------------|--------------------------|
-------------------------|--------------------------|
-------------------------|--------------------------|
---------0--0-0--0-0-----|--0--0--0-0-0-0-0---------|
---------0--0-0--0-0-----|--0--0--0-0-0-0-0---------|
 
 
  E  S E  S E  S S E  S S E     Q.     E  S S S S E  E   
-----------------------------|--------------------------|
-----------------------------|--------------------------|
-----------------------------|--------------------------|
-----------------------------|--------------------------|
-----0-0--0-0--0-0-0--0-0-0--|---------0--0-0-0-0-0-----|
-----0-0--0-0--0-0-0--0-0-0--|---------0--0-0-0-0-0-----|
 
 
  Q.     E  S E  S E  E     H           E  E   E  E   E   E  E   E   
-------------------------|-----------|------------------------------|
-------------------------|-----------|--------10-----13--10---------|
-------------------------|-----------|--7--9------9----------9--10--|
-------------------------|-----------|------------------------------|
---------0--0-0--0-0-----|-----------|------------------------------|
---------0--0-0--0-0-----|-----------|------------------------------|
 
 
  E  E   E  E   E  E  E   E     E   E   E  E   E   E   E  E   
-----------------------------|-------------------------------|
--------10-----10------------|---------13---------13---------|
--7--9------7------7--9--10--|--9--10------9--10------10--9--|
-----------------------------|-------------------------------|
-----------------------------|-------------------------------|
-----------------------------|-------------------------------|
 
 
  E  E  E  E   E  E   E   E     E  E   E  E   E   E  E   E   
-----------------------------|------------------------------|
---------------------13--10--|--------10-----13--10---------|
--5--7--7--3--10--7----------|--7--9------9----------9--10--|
-----------------------------|------------------------------|
-----------------------------|------------------------------|
-----------------------------|------------------------------|
 
 
  E  E   E  E   E  E  E   E     E   E   E  E   E   E   E  E   
-----------------------------|-------------------------------|
--------10-----10------------|---------13---------13---------|
--7--9------7------7--9--10--|--9--10------9--10------10--9--|
-----------------------------|-------------------------------|
-----------------------------|-------------------------------|
-----------------------------|-------------------------------|
 
 
  E  E  E  E   E  E    Q         E   E   E   E   E   E   E   E   
-----------------------------|----------------------------------|
-----------------------------|----------------------------------|
--5--7--7--3--10--7--<>9~----|--10--10--10--10--10--10--10--10--|
-----------------------------|----------------------------------|
-----------------------------|---8---8---8---8---8---8---8---8--|
-----------------------------|----------------------------------|
 
 
   E  E  E  E  E  E  E  E      E   E   E   E   E   E   E   E   
---------------------------|----------------------------------|
---------------------------|----------------------------------|
--10--7--7--7--7--7--7--7--|--14--14--14--17--17--17--17--12--|
---------------------------|----------------------------------|
---8--5--5--5--5--5--5--5--|--12--12--12--15--15--15--15--10--|
---------------------------|----------------------------------|
 
 
   E   E   E   E   E   E   E   E      E   E   E   E   E   E   E   E   
----------------------------------|----------------------------------|
----------------------------------|----------------------------------|
--12--12--12--12--12--10--10--10--|--10--10--10--10--10--10--10--10--|
----------------------------------|----------------------------------|
--10--10--10--10--10---8---8---8--|---8---8---8---8---8---8---8---8--|
----------------------------------|----------------------------------|
 
 
   E  E  E  E  E  E  E  E      E   E   E   E   E   E   E   E   
---------------------------|----------------------------------|
---------------------------|----------------------------------|
--10--7--7--7--7--7--7--7--|--12--12--12--14--14--14--14--14--|
---------------------------|----------------------------------|
---8--5--5--5--5--5--5--5--|--10--10--10--12--12--12--12--12--|
---------------------------|----------------------------------|
 
 
                                     PM PM           PM PM PM  
   E   E   E   E   E   E   E   E     E  E  Q    Q    S  S  E   
----------------------------------|---------------------------|
----------------------------------|--------5----5-------------|
--14--17--17--17--17--17--17--17--|--------8----8-------------|
----------------------------------|---------------------------|
--12--15--15--15--15--15--15--15--|--0--0------------0--0--0--|
----------------------------------|--0--0------------0--0--0--|
 
 
            PM PM PM            PM PM           PM PM PM  
  Q    Q    S  S  E    Q        E  E  Q    Q    S  S  E   
-----------------------------|---------------------------|
--5----5---------------------|--------5----5-------------|
--8----8---------------------|--------8----8-------------|
-----------------------------|---------------------------|
------------0--0--0--<>8~----|--0--0------------0--0--0--|
------------0--0--0----------|--0--0------------0--0--0--|
 
 
                                                    PM PM           PM PM PM  
  |---3---|  |---3---|  |----3---|  |----3----|                               
  E   E   E  E   E   E  E   E    E  E    E    E     E  E  Q    Q    S  S  E   
-------------------------------------------------|---------------------------|
-------------------------------------------------|--------5----5-------------|
-------------------------------------------------|--------8----8-------------|
-------------------------------------------------|---------------------------|
-------------0h--7h--8--------------0h--10h--12--|--0--0------------0--0--0--|
--0h--5h--7-------------0h--8h--10---------------|--0--0------------0--0--0--|
 
 
            PM PM PM            PM PM           PM PM PM  
  Q    Q    S  S  E    Q        E  E  Q    Q    S  S  E   
-----------------------------|---------------------------|
--5----5---------------------|--------5----5-------------|
--8----8---------------------|--------8----8-------------|
-----------------------------|---------------------------|
------------0--0--0--<>8~----|--0--0------------0--0--0--|
------------0--0--0----------|--0--0------------0--0--0--|
 
 
  |---3---|  |---3---|  |----3---|  |----3----|                       
  E   E   E  E   E   E  E   E    E  E    E    E     W                 
-------------------------------------------------|-------------------|
-------------------------------------------------|-------------------|
-------------------------------------------------|-------------------|
-------------------------------------------------|--0----------------|
-------------0h--7h--8--------------0h--10h--12--|--0----------------|
--0h--5h--7-------------0h--8h--10---------------|--0----------------|
 
 
                      PM PM    PM       PM       PM    PM PM              
  W                   E  E  E  E  E  E  E  E     E  E  E  E  E  E  E  E   
-------------------|--------------------------|--------------------------|
-------------------|--------------------------|--------------------------|
-------------------|--------------------------|--------------------------|
-------------------|--------7-----5--------2--|-----3--------7--8-----5--|
-------------------|-----------------3--------|--------------------3-----|
-------------------|--0--0-----0--------0-----|--8-----8--8--------------|
 
 
  PM PM PM    PM       PM       PM                        
  S  S  E  E  E  E  E  E  E     E  E  E  E  E   E  E  E   
-----------------------------|---------------------------|
-----------------------------|---------------------------|
-----------------------------|---------------------------|
-----------7-----5--------3--|-----7--5--3--8--10--8--7--|
--------------------3--------|---------------------------|
--0--0--0-----0--------0-----|--5------------------------|
 
 
   S  S  S  S S S S S  S  S  S  S  S  S  S  S  
----------------------------------------------|
----------------------------------------------|
----------------------------------------------|
--------------8-8-8-8-10-10-10-10-------------|
----------------------------------------------|
--12-12-12-12---------------------14-14-14-14-|
 
 
                                                 PM PM PM    PM       PM     
  S S S S  S  S  S  S  S  S  S  S  S  S  S  S    S  S  E  E  E  E  E  E  E   
----------------------------------------------|-----------------------------|
----------------------------------------------|-----------------------------|
----------------------------------------------|-----------------------------|
--8-8-8-8-10-10-10-10-------------------------|-----------7-----5--------7--|
----------------------10-10-10-10-12-12-12-12-|--------------------3--------|
----------------------------------------------|--0--0--0-----0--------0-----|
 
 
  PM                         PM PM    PM       PM     
  E  E  E  E  E  E  E  E     E  E  E  E  E  E  E  E   
--------------------------|--------------------------|
--------------------------|--------------------------|
--------------------------|--------------------------|
-----3--5--7--2--3--5--3--|--------7-----5--------2--|
--------------------------|-----------------3--------|
--5-----------------------|--0--0-----0--------0-----|
 
 
  PM    PM PM                PM PM PM    PM       PM     
  E  E  E  E  E  E  E  E     S  S  E  E  E  E  E  E  E   
--------------------------|-----------------------------|
--------------------------|-----------------------------|
--------------------------|-----------------------------|
-----3--------7--8-----5--|-----------7-----5--------3--|
--------------------3-----|--------------------3--------|
--8-----8--8--------------|--0--0--0-----0--------0-----|
 
 
  PM                                                                       
  E  E  E  E  E   E  E  E      S  S  S  S S S S S  S  S  S  S  S  S  S  S  
---------------------------|----------------------------------------------|
---------------------------|----------------------------------------------|
---------------------------|----------------------------------------------|
-----7--5--3--8--10--8--7--|--------------8-8-8-8-10-10-10-10-------------|
---------------------------|----------------------------------------------|
--5------------------------|--12-12-12-12---------------------14-14-14-14-|
 
 
  S S S S  S  S  S  S  S  S  S  S  S  S  S  S    S S E  S E  S  
----------------------------------------------|----------------|
----------------------------------------------|----------------|
----------------------------------------------|----------------|
--8-8-8-8-10-10-10-10-------------------------|----------------|
----------------------10-10-10-10-12-12-12-12-|--0-0-0--0-0----|
----------------------------------------------|--0-0-0--0-0----|
 
 
  S S E  S S S S S S S S Q       E  S S S S S S S S E  S S E   
------------------------------|-------------------------------|
------------------------------|-------------------------------|
------------------------------|-------------------------------|
------------------------------|-------------------------------|
--0-0-0--0-0---0-0-L-0-0------|-----0-0---0-0---0-0-0--0-0----|
--0-0-0--0-0---0-0-L-0-0------|-----0-0---0-0---0-0-0--0-0----|
 
 
  S S S S S S S S H           S S E  S S E  S S S S S S E   
---------------------------|-------------------------------|
---------------------------|-------------------------------|
---------------------------|-------------------------------|
---------------------------|-------------------------------|
--0---0-0---0-0------------|--0-0-0--0-0-0----0-0-L-0-0----|
--0---0-0---0-0------------|--0-0-0--0-0-0----0-0-L-0-0----|
 
 
  S S E  S S S S S S S S Q       E  S S S S S S S S E  S S E   
------------------------------|-------------------------------|
------------------------------|-------------------------------|
------------------------------|-------------------------------|
------------------------------|-------------------------------|
--0-0-0--0-0---0-0-L-0-0------|-----0-0---0-0---0-0-0--0-0----|
--0-0-0--0-0---0-0-L-0-0------|-----0-0---0-0---0-0-0--0-0----|
 
 
  S S S S S S S S H           S S E  S S E  S S S S S S E   
---------------------------|-------------------------------|
---------------------------|-------------------------------|
---------------------------|-------------------------------|
---------------------------|-------------------------------|
--0---0-0---0-0------------|--0-0-0--0-0-0----0-0-L-0-0----|
--0---0-0---0-0------------|--0-0-0--0-0-0----0-0-L-0-0----|
 
 
   E   E   E   E   E   E   E   E      E  E  E  E  E  E  E  E   
----------------------------------|---------------------------|
----------------------------------|---------------------------|
--10--10--10--10--10--10--10--10--|--10--7--7--7--7--7--7--7--|
----------------------------------|---------------------------|
---8---8---8---8---8---8---8---8--|---8--5--5--5--5--5--5--5--|
----------------------------------|---------------------------|
 
 
   E   E   E   E   E   E   E   E      E   E   E   E   E   E   E   E   
----------------------------------|----------------------------------|
----------------------------------|----------------------------------|
--14--14--14--17--17--17--17--12--|--12--12--12--12--12--10--10--10--|
----------------------------------|----------------------------------|
--12--12--12--15--15--15--15--10--|--10--10--10--10--10---8---8---8--|
----------------------------------|----------------------------------|
 
 
   E   E   E   E   E   E   E   E      E  E  E  E  E  E  E  E   
----------------------------------|---------------------------|
----------------------------------|---------------------------|
--10--10--10--10--10--10--10--10--|--10--7--7--7--7--7--7--7--|
----------------------------------|---------------------------|
---8---8---8---8---8---8---8---8--|---8--5--5--5--5--5--5--5--|
----------------------------------|---------------------------|
 
 
   E   E   E   E   E   E   E   E      E   E   E   E   E   E   E   E   
----------------------------------|----------------------------------|
----------------------------------|----------------------------------|
--12--12--12--14--14--14--14--14--|--14--17--17--17--17--17--17--17--|
----------------------------------|----------------------------------|
--10--10--10--12--12--12--12--12--|--12--15--15--15--15--15--15--15--|
----------------------------------|----------------------------------|
 
 
   E   E   E   E   E   E   E   E      E  E  E  E  E  E  E  E   
----------------------------------|---------------------------|
----------------------------------|---------------------------|
--10--10--10--10--10--10--10--10--|--10--7--7--7--7--7--7--7--|
----------------------------------|---------------------------|
---8---8---8---8---8---8---8---8--|---8--5--5--5--5--5--5--5--|
----------------------------------|---------------------------|
 
 
   E   E   E   E   E   E   E   E      E   E   E   E   E   E   E   E   
----------------------------------|----------------------------------|
----------------------------------|----------------------------------|
--14--14--14--17--17--17--17--12--|--12--12--12--12--12--10--10--10--|
----------------------------------|----------------------------------|
--12--12--12--15--15--15--15--10--|--10--10--10--10--10---8---8---8--|
----------------------------------|----------------------------------|
 
 
   E   E   E   E   E   E   E   E      E  E  E  E  E  E  E  E   
----------------------------------|---------------------------|
----------------------------------|---------------------------|
--10--10--10--10--10--10--10--10--|--10--7--7--7--7--7--7--7--|
----------------------------------|---------------------------|
---8---8---8---8---8---8---8---8--|---8--5--5--5--5--5--5--5--|
----------------------------------|---------------------------|
 
 
   E   E   E   E   E   E   E   E      E   E   E   E   E   E   E   E           
----------------------------------|----------------------------------|-------|
----------------------------------|----------------------------------|-------|
--12--12--12--14--14--14--14--14--|--14--17--17--17--17--17--17--17--|-------|
----------------------------------|----------------------------------|-------|
--10--10--10--12--12--12--12--12--|--12--15--15--15--15--15--15--15--|-------|
----------------------------------|----------------------------------|-------|
 
 
  PM PM      PM PM PM PM PM PM PM          PM PM PM PM PM PM PM PM PM  
  S  S  Q    S  S  S  S  S  S  E  E     E  S  E  S  E  E  S  E  S  E   
-------------------------------------|--------------------------------|
-------------------------------------|--------------------------------|
-------------------------------------|--------------------------------|
-------------------------------------|--------------------------------|
--0--0--L----0--0--0--0--0--0--0--L--|--L--0--0--0--0--0--0--0--0--0--|
--1--1--L----1--1--1--1--1--1--1--L--|--L--1--1--1--1--1--1--1--1--1--|
 
 
  W                   W                   W                  
-------------------|-------------------|-------------------||
-------------------|-------------------|-------------------||
-------------------|-------------------|-------------------||
-------------------|-------------------|-------------------||
--0----------------|--L----------------|--L----------------||
--0----------------|--L----------------|--L----------------||
 
 
 

GTR R
                         E  E  E   E   E   E   
D||-------------------|-----------------------|
A||-------------------|-----------------------|
F||-------------------|-----------------------|
C||-------------------|--8--8--8--12--12--12--|
G||-------------------|--8--8--8---8---8---8--|
C||-------------------|--8--8--8---8---8---8--|
 
 
   E   E   E   E   E   E   E   E     E  E  E  E  E  E   
----------------------------------|--------------------|
----------------------------------|--------------------|
--10--10--10--10--10--10--10--10--|--------------------|
--12--12--12--12--12--12--12--12--|--5--5--5--8--8--8--|
---8---8---8---8---8---8---8---8--|--5--5--5--5--5--5--|
---8---8---8---8---8---8---8---8--|--5--5--5--5--5--5--|
 
 
                             PM PM    PM PM    PM PM  
  E  E  E  E  E  E  E  E     E  E  E  E  E  E  E  E   
--------------------------|--------------------------|
--------------------------|--------------------------|
--7--7--7--7--7--7--7--7--|--------------------------|
--8--8--8--8--8--8--8--8--|--------------------------|
--5--5--5--5--5--5--5--5--|--0--0--L--0--0--L--0--0--|
--5--5--5--5--5--5--5--5--|--0--0--L--0--0--L--0--0--|
 
 
     PM PM PM                PM PM      PM PM PM PM  
  E  E  E  E  E  E  E  E     E  E  Q    E  E  E  E   
--------------------------|-------------------------|
--------------------------|-------------------------|
--------------------------|-------------------------|
--------------------------|-------------------------|
--L--0--0--0--8--8--7--7--|--0--0--L----0--0--0--0--|
--L--0--0--0--8--8--7--7--|--0--0--L----0--0--0--0--|
 
 
     PM PM PM                                        
  E  E  E  E   E   E  E  E     E  E  E   E   E   E   
----------------------------|-----------------------|
----------------------------|-----------------------|
----------------------------|-----------------------|
----------------------------|--8--8--8--12--12--12--|
--L--0--0--0--10--10--7--7--|--8--8--8---8---8---8--|
--L--0--0--0--10--10--7--7--|--8--8--8---8---8---8--|
 
 
   E   E   E   E   E   E   E   E     E  E  E  E  E  E   
----------------------------------|--------------------|
----------------------------------|--------------------|
--10--10--10--10--10--10--10--10--|--------------------|
--12--12--12--12--12--12--12--12--|--5--5--5--8--8--8--|
---8---8---8---8---8---8---8---8--|--5--5--5--5--5--5--|
---8---8---8---8---8---8---8---8--|--5--5--5--5--5--5--|
 
 
                             PM PM PM    PM       PM     
  E  E  E  E  E  E  E  E     S  S  E  E  E  E  E  E  E   
--------------------------|-----------------------------|
--------------------------|-----------------------------|
--7--7--7--7--7--7--7--7--|-----------------------------|
--8--8--8--8--8--8--8--8--|-----------------------------|
--5--5--5--5--5--5--5--5--|-----------8-----7--0-----8--|
--5--5--5--5--5--5--5--5--|--0--0--0-----0--------0-----|
 
 
  PM                         PM PM    PM       PM     
  E  E  E  E  E  E  E  E     E  E  E  E  E  E  E  E   
--------------------------|--------------------------|
--------------------------|--------------------------|
--------------------------|--------------------------|
--------------------------|--------------------------|
-----5--7--8--3--5--7--5--|--------8-----7--0-----3--|
--5-----------------------|--0--0-----0--------0-----|
 
 
  PM    PM PM                 PM PM PM    PM       PM     
  E  E  E  E  E   E  E  E     S  S  E  E  E  E  E  E  E   
---------------------------|-----------------------------|
---------------------------|-----------------------------|
---------------------------|-----------------------------|
---------------------------|-----------------------------|
-----5--------8--10--0--7--|-----------8-----7--0-----5--|
--8-----8--8---------------|--0--0--0-----0--------0-----|
 
 
  PM                                                                      
  E  E  E  E  E  E  E  E     S S S S  S  S  S  S  S  S  S  S  S  S  S  S  
--------------------------|----------------------------------------------|
--------------------------|----------------------------------------------|
--------------------------|----------------------------------------------|
--------------5--7--5-----|----------------------------------------------|
-----8--7--5-----------8--|----------10-10-10-10-12-12-12-12-------------|
--5-----------------------|--8-8-8-8-------------------------10-10-10-10-|
 
 
                                             PM PM PM    PM       PM     
   S  S  S  S  S  S  S  S S S S S S S S S    S  S  E  E  E  E  E  E  E   
------------------------------------------|-----------------------------|
------------------------------------------|-----------------------------|
------------------------------------------|-----------------------------|
------------------------------------------|-----------------------------|
--10-10-10-10-12-12-12-12-7-7-7-7-8-8-8-8-|-----------8-----7--0-----8--|
------------------------------------------|--0--0--0-----0--------0-----|
 
 
  PM                         PM PM    PM       PM     
  E  E  E  E  E  E  E  E     E  E  E  E  E  E  E  E   
--------------------------|--------------------------|
--------------------------|--------------------------|
--------------------------|--------------------------|
--------------------------|--------------------------|
-----5--7--8--3--5--7--5--|--------8-----7--0-----3--|
--5-----------------------|--0--0-----0--------0-----|
 
 
  PM    PM PM                 PM PM PM    PM       PM     
  E  E  E  E  E   E  E  E     S  S  E  E  E  E  E  E  E   
---------------------------|-----------------------------|
---------------------------|-----------------------------|
---------------------------|-----------------------------|
---------------------------|-----------------------------|
-----5--------8--10--0--7--|-----------8-----7--0-----5--|
--8-----8--8---------------|--0--0--0-----0--------0-----|
 
 
  PM                                                                      
  E  E  E  E  E  E  E  E     S S S S  S  S  S  S  S  S  S  S  S  S  S  S  
--------------------------|----------------------------------------------|
--------------------------|----------------------------------------------|
--------------------------|----------------------------------------------|
--------------5--7--5-----|----------------------------------------------|
-----8--7--5-----------8--|----------10-10-10-10-12-12-12-12-------------|
--5-----------------------|--8-8-8-8-------------------------10-10-10-10-|
 
 
                                             PM PM PM    PM       PM     
   S  S  S  S  S  S  S  S S S S S S S S S    S  S  E  E  E  E  E  E  E   
------------------------------------------|-----------------------------|
------------------------------------------|-----------------------------|
------------------------------------------|-----------------------------|
------------------------------------------|-----------------------------|
--10-10-10-10-12-12-12-12-7-7-7-7-8-8-8-8-|-----------8-----7--0-----8--|
------------------------------------------|--0--0--0-----0--------0-----|
 
 
  PM                         PM PM    PM       PM     
  E  E  E  E  E  E  E  E     E  E  E  E  E  E  E  E   
--------------------------|--------------------------|
--------------------------|--------------------------|
--------------------------|--------------------------|
--------------------------|--------------------------|
-----5--7--8--3--5--7--5--|--------8-----7--0-----3--|
--5-----------------------|--0--0-----0--------0-----|
 
 
  PM    PM PM                 PM PM PM    PM       PM     
  E  E  E  E  E   E  E  E     S  S  E  E  E  E  E  E  E   
---------------------------|-----------------------------|
---------------------------|-----------------------------|
---------------------------|-----------------------------|
---------------------------|-----------------------------|
-----5--------8--10--0--7--|-----------8-----7--0-----5--|
--8-----8--8---------------|--0--0--0-----0--------0-----|
 
 
  PM                                                                      
  E  E  E  E  E  E  E  E     S S S S  S  S  S  S  S  S  S  S  S  S  S  S  
--------------------------|----------------------------------------------|
--------------------------|----------------------------------------------|
--------------------------|----------------------------------------------|
--------------5--7--5-----|----------------------------------------------|
-----8--7--5-----------8--|----------10-10-10-10-12-12-12-12-------------|
--5-----------------------|--8-8-8-8-------------------------10-10-10-10-|
 
 
                                             PM PM PM          PM PM PM  
   S  S  S  S  S  S  S  S S S S S S S S S    S  S  E  H        S  S  E   
------------------------------------------|-----------------------------|
------------------------------------------|-----------------------------|
------------------------------------------|-----------------------------|
------------------------------------------|-----------------------------|
--10-10-10-10-12-12-12-12-7-7-7-7-8-8-8-8-|--0--0--0-----------0--0--0--|
------------------------------------------|--0--0--0-----------0--0--0--|
 
 
           PM PM PM PM PM PM    PM PM PM    PM       PM PM PM  
  H        S  S  E  S  S  E     S  S  E  E  E  E  E  S  S  E   
-----------------------------|--------------------------------|
-----------------------------|--------------------------------|
-----------------------------|--------------------------------|
-----------------------------|--------------------------------|
-----------0--0--0--0--0--0--|--0--0--0--8-----7--0--0--0--0--|
-----------0--0--0--0--0--0--|--0--0--0-----0--------0--0--0--|
 
 
     PM       PM PM PM   PM PM PM                                            
  E  E  E  E  S  S  S  S S  S  S  S    W                   W                 
------------------------------------|-------------------|-------------------|
------------------------------------|-------------------|-------------------|
------------------------------------|-------------------|-------------------|
------------------------------------|--0----------------|--L----------------|
--8-----7--0--0--0--0----0--0--0----|--0----------------|--L----------------|
-----0--------0--0--0----0--0--0----|--0----------------|--L----------------|
 
 
  W                   W                   W                 
-------------------|-------------------|-------------------|
-------------------|-------------------|-------------------|
-------------------|-------------------|-------------------|
--L----------------|-------------------|-------------------|
--L----------------|-------------------|-------------------|
--L----------------|-------------------|-------------------|
 
 
  PM PM      PM PM PM PM PM PM PM            PM PM PM PM PM PM PM PM PM  
  S  S  Q    S  S  S  S  S  S  S  S E     E  S  E  S  E  E  S  E  S  E   
---------------------------------------|--------------------------------|
---------------------------------------|--------------------------------|
---------------------------------------|--------------------------------|
---------------------------------------|--------------------------------|
--0--0-------0--0--0--0--0--0--0-------|-----0--0--0--0--0--0--0--0--0--|
--0--0-------0--0--0--0--0--0--0-------|-----0--0--0--0--0--0--0--0--0--|
 
 
           PM PM PM PM PM PM                             
  H        S  S  S  S  E  E     E  E  E  E  E  E  E  E   
-----------------------------|--------------------------|
-----------------------------|--------------------------|
-----------------------------|--------------------------|
-----------------------------|--------------------------|
-----------0--0--0--0--0--0--|-----3--5--7-----5--8--7--|
-----------0--0--0--0--0--0--|--8-----------5-----------|
 
 
  PM PM      PM PM PM PM PM PM PM            PM PM PM PM PM PM PM PM PM  
  S  S  Q    S  S  S  S  S  S  S  S E     E  S  E  S  E  E  S  E  S  E   
---------------------------------------|--------------------------------|
---------------------------------------|--------------------------------|
---------------------------------------|--------------------------------|
---------------------------------------|--------------------------------|
--0--0-------0--0--0--0--0--0--0-------|-----0--0--0--0--0--0--0--0--0--|
--0--0-------0--0--0--0--0--0--0-------|-----0--0--0--0--0--0--0--0--0--|
 
 
           PM PM PM PM PM PM                               <         
  H        S  S  S  S  E  E     E  E  E  E  E  E  E  E     H         
-----------------------------|--------------------------|-----------|
-----------------------------|--------------------------|-----------|
-----------------------------|--------------------------|-----------|
-----------------------------|--------------------------|-----------|
-----------0--0--0--0--0--0--|-----3--5--7-----5--7--8--|--0--------|
-----------0--0--0--0--0--0--|--8-----------5-----------|--1--------|
 
 
  PM PM      PM PM PM PM PM PM PM          PM PM PM PM PM PM PM PM PM  
  S  S  Q    S  S  S  S  S  S  E  E     E  S  E  S  E  E  S  E  S  E   
-------------------------------------|--------------------------------|
-------------------------------------|--------------------------------|
-------------------------------------|--------------------------------|
-------------------------------------|--------------------------------|
--0--0--L----0--0--0--0--0--0--0--L--|--L--0--0--0--0--0--0--0--0--0--|
--1--1--L----1--1--1--1--1--1--1--L--|--L--1--1--1--1--1--1--1--1--1--|
 
 
           PM PM PM PM PM PM                        W     
  H        S  S  S  S  E  E     E  E  E  E  E  E    Q     
-----------------------------|---------------------------|
-----------------------------|---------------------------|
-----------------------------|---------------------------|
-----------------------------|---------------------------|
--L--------0--0--0--0--0--0--|-----3--5--7-----5--<>8----|
--L--------1--1--1--1--1--1--|--8-----------5------------|
 
 
  PM PM      PM PM PM PM PM PM PM            PM PM PM PM PM PM PM PM PM  
  S  S  Q    S  S  S  S  S  S  S  S E     E  S  E  S  E  E  S  E  S  E   
---------------------------------------|--------------------------------|
---------------------------------------|--------------------------------|
---------------------------------------|--------------------------------|
---------------------------------------|--------------------------------|
--0--0-------0--0--0--0--0--0--0-------|-----0--0--0--0--0--0--0--0--0--|
--0--0-------0--0--0--0--0--0--0-------|-----0--0--0--0--0--0--0--0--0--|
 
 
           PM PM PM PM PM PM                                                 
  H        S  S  S  S  E  E     E  E  E  E  E  E  E  E     W                 
-----------------------------|--------------------------|-------------------|
-----------------------------|--------------------------|-------------------|
-----------------------------|--------------------------|-------------------|
-----------------------------|--------------------------|-------------------|
-----------0--0--0--0--0--0--|-----3--5--7-----5--8--7--|-------------------|
-----------0--0--0--0--0--0--|--8-----------5-----------|-------------------|
 
 
              PM PM PM         PM        PM    PM PM PM PM           
  H           S  S  E   E   E  E  E   E  E     E  S  S  E  E  E  E   
-----------|--------------------------------|-----------------------|
-----------|--------------------------------|-----------------------|
-----------|--------------------------------|-----------------------|
-----------|--------------------------------|--------------7--8--7--|
-----------|-----------10--12-----8--10-----|-----------------------|
-----------|--0--0--0----------0---------0--|--0--0--0--0-----------|
 
 
        PM    PM       PM    PM PM PM                  
  E  E  E  E  E  E  E  E     S  S  E  S S S S S S S S  
--------------------------|---------------------------|
--------------------------|---------------------------|
--------------------------|---------------------------|
--------------------------|---------------------------|
--8--5-----7-----3--5-----|-----------8-8-8-8-7-7-7-7-|
--------0-----0--------0--|--0--0--0------------------|
 
 
  PM PM PM        PM        PM    PM PM PM PM                     
  S  S  E  E   E  E   E  E  E     E  S  S  E   E   E   E   E  E   
-------------------------------|---------------------------------|
-------------------------------|---------------------------------|
-------------------------------|---------------------------------|
-----------8--10-----10--7-----|--------------10--12--10---------|
-------------------------------|--------------------------12--8--|
--0--0--0---------0---------0--|--0--0--0--0------------------8--|
 
 
     PM     PM                     PM    PM              
  E  E   E  E  E   E   E  E     E  E  E  E  E  E  E  E   
-----------------------------|--------------------------|
-----------------------------|--------------------------|
-----------------------------|--------------------------|
--------10-------------------|--------7-----------5-----|
--L------------8--10--12--5--|--L-----------7--8-----0--|
--L--8------8-------------5--|--L--5-----5-----------0--|
 
 
     PM         PM        PM    PM PM PM PM           
  E  E   E   E  E  E   E  E     E  S  S  E  E  E  E   
-----------------------------|-----------------------|
-----------------------------|-----------------------|
-----------------------------|-----------------------|
-----------------------------|--------------7--8--7--|
--L-----10--12-----8--10-----|-----------------------|
--L--0----------0---------0--|--0--0--0--0-----------|
 
 
        PM    PM       PM    PM PM PM                  
  E  E  E  E  E  E  E  E     S  S  E  S S S S S S S S  
--------------------------|---------------------------|
--------------------------|---------------------------|
--------------------------|---------------------------|
--------------------------|---------------------------|
--8--5-----7-----3--5-----|-----------8-8-8-8-7-7-7-7-|
--------0-----0--------0--|--0--0--0------------------|
 
 
  PM PM PM        PM        PM    PM PM PM PM                     
  S  S  E  E   E  E   E  E  E     E  S  S  E   E   E   E   E  E   
-------------------------------|---------------------------------|
-------------------------------|---------------------------------|
-------------------------------|---------------------------------|
-----------8--10-----10--7-----|--------------10--12--10---------|
-------------------------------|--------------------------12--8--|
--0--0--0---------0---------0--|--0--0--0--0------------------8--|
 
 
     PM     PM                     PM    PM              
  E  E   E  E  E   E   E  E     E  E  E  E  E  E  E  E   
-----------------------------|--------------------------|
-----------------------------|--------------------------|
-----------------------------|--------------------------|
--------10-------------------|--------7-----------5-----|
--L------------8--10--12--5--|--L-----------7--8-----5--|
--L--8------8-------------5--|--L--5-----5--------------|
 
 
  E  E  E  E  E  E  E  E     E  E  E  E  E  E  E  E   
--------------------------|--------------------------|
--------------------------|--------------------------|
--7--7--7--7--7--7--7--7--|--7--7--7--7--7--7--7--7--|
--------------------------|--------------------------|
--5--5--5--5--5--5--5--5--|--5--5--5--5--5--5--5--5--|
--------------------------|--------------------------|
 
 
  E  E  E  E  E  E  E  E     E  E  E  E  E  E  E  E   
--------------------------|--------------------------|
--5--5--5--5--5--5--5--5--|--5--5--5--5--5--5--5--5--|
--7--7--7--7--7--7--7--7--|--7--7--7--7--7--7--7--7--|
--------------------------|--------------------------|
--5--5--5--5--5--5--5--5--|--5--5--5--5--5--5--5--5--|
--------------------------|--------------------------|
 
 
   E   E   E   E   E   E   E   E      E   E   E   E   E   E   E   E   
----------------------------------|----------------------------------|
----------------------------------|----------------------------------|
--10--10--10--10--10--10--10--10--|--10--10--10--10--10--10--10--10--|
----------------------------------|----------------------------------|
---8---8---8---8---8---8---8---8--|---8---8---8---8---8---8---8---8--|
----------------------------------|----------------------------------|
 
 
   E   E   E   E   E   E   E   E      E   E   E   E   E   E   E   E   
----------------------------------|----------------------------------|
----------------------------------|----------------------------------|
--14--14--14--14--14--14--14--14--|--14--14--14--14--14--14--14--14--|
----------------------------------|----------------------------------|
--12--12--12--12--12--12--12--12--|--12--12--12--12--12--12--12--12--|
----------------------------------|----------------------------------|
 
 
  PM                                                                         
  W                   E  E  S S S S E  Q.        E  S E  S E  S S E  S S E   
-------------------|--------------------------|-----------------------------|
-------------------|--------------------------|-----------------------------|
-------------------|--------------------------|-----------------------------|
-------------------|--------------------------|-----------------------------|
--0----------------|--0--0--0-0-0-0-0---------|-----0-0--0-0--0-0-0--0-0-0--|
--0----------------|--0--0--0-0-0-0-0---------|-----0-0--0-0--0-0-0--0-0-0--|
 
 
  Q.     E  S S S S E  E     Q.     E  S E  S E  E     E  E  S S S S E  Q.      
--------------------------|-------------------------|--------------------------|
--------------------------|-------------------------|--------------------------|
--------------------------|-------------------------|--------------------------|
--------------------------|-------------------------|--------------------------|
---------0--0-0-0-0-0-----|---------0--0-0--0-0-----|--0--0--0-0-0-0-0---------|
---------0--0-0-0-0-0-----|---------0--0-0--0-0-----|--0--0--0-0-0-0-0---------|
 
 
  E  S E  S E  S S E  S S E     Q.     E  S S S S E  E   
-----------------------------|--------------------------|
-----------------------------|--------------------------|
-----------------------------|--------------------------|
-----------------------------|--------------------------|
-----0-0--0-0--0-0-0--0-0-0--|---------0--0-0-0-0-0-----|
-----0-0--0-0--0-0-0--0-0-0--|---------0--0-0-0-0-0-----|
 
 
  Q.     E  S E  S E  E     H           E  E  S S S S E  Q.      
-------------------------|-----------|--------------------------|
-------------------------|-----------|--------------------------|
-------------------------|-----------|--------------------------|
-------------------------|-----------|--------------------------|
---------0--0-0--0-0-----|-----------|--0--0--0-0-0-0-0---------|
---------0--0-0--0-0-----|-----------|--0--0--0-0-0-0-0---------|
 
 
                                                  PM     
  E  S E  S E  S S E  S S E     Q.     E  S S S S E  E   
-----------------------------|--------------------------|
-----------------------------|--------------------------|
-----------------------------|--------------------------|
-----------------------------|--------------------------|
-----0-0--0-0--0-0-0--0-0-0--|---------0--0-0-0-0-0--L--|
-----0-0--0-0--0-0-0--0-0-0--|---------0--0-0-0-0-0--L--|
 
 
  Q.     E  S E  S E  E     E  E  S S S S E  Q.      
-------------------------|--------------------------|
-------------------------|--------------------------|
-------------------------|--------------------------|
-------------------------|--------------------------|
--L------0--0-0--0-0-----|--0--0--0-0-0-0-0---------|
--L------0--0-0--0-0-----|--0--0--0-0-0-0-0---------|
 
 
                                 
comments
We did not receive enough feedback on this tab! Please rate:
1 2 3 4 5
I want to post or [tab]
guest
You may want to rate the tab now too:
select rating
Please do not post tabs as comments. Select "correction" instead!