Oops, an error
Loading. Please wait.

Next Year Acoustic Tab

ver1
ver1

Whole song

Interactive

More versions @911Tabs.com
492 views 3 this week
no commentswrite comment
1 2 3 4 5
please rate
Autoscroll
+/-
esc
set tempo
stop
Contributor
Difficulty
Tuning
novice
D A D G B E
Hey! There's an official Ultimate Guitar app which is ideal
for learning songs when you're away from computer. Get the app
WARNING: You are trying to view
                                    content from Ultimate-Guitar.com
                                    in an unauthorized application,
                                    which is prohibited.

                                    Please use an official Ultimate
                                    Guitar Tabs application for iPhone,
                                    iPad or Android to access legitimate
                                    chords, guitar, bass, and drum tabs
                                    from Ultimate-Guitar.com database.

                                    Type "ultimate guitar tabs" in Apple
                                    App Store's or Android Market's
                                    search to find the application.
 Next Year (Acoustic Version)


                                                            The Eleventh Failure
GTR L
     E.  E  E  S     E   S  S  E   S  E   E   S  E   S  T  T
E||--------------|-------------------------------------------|
B||------x--x--x-|--11--11-11-11--11-11--11--11-11--11-11-11-|
G||------x--x--x-|--10--10-10-10--10-10--10--10-10--10-10-10-|
D||------x--x--x-|---8---8--8-12--12-12---8---8--8---8--8--8-|
A||------x--x--x-|---8---8--8--8---8--8---8---8--8---8--8--8-|
D||------x--x--x-|---8---8--8--8---8--8---8---8--8---8--8--8-|


  E  S S E  S E  E  S S S S S     S  S  S  S  E   S  E   E   S  E   S  S
--5--6-6-6--6-5--5--5-5-5-5-5-|---------8-----8------8---8------8---8--8-|
--6--6-6-6--6-6--6--6-6-6-6-6-|--11-11-11-11-11--11-11--11--11-11--11-11-|
----------------------7-7-7-7-|--10-10-10-10-10--10-10--10--10-10--10-10-|
--5--5-5-5--5-5--5--5-5-5-5-5-|---8--8--8--8-12--12-12---8---8--8---8--8-|
--5--5-5-5--5-5--5--5-5-5-5-5-|---8--8--8--8--8---8--8---8---8--8---8--8-|
--5--5-5-5--5-5--5--5-5-5-5-5-|---8--8--8--8--8---8--8---8---8--8---8--8-|


                ^           ^        ^           ^
  E  S S E  S S H           H        H           W
--5--6-6-6--6-5----------|--------------------|--0----------------|
--6--6-6-6--6-6-8--------|--6--------5--------|--3----------------|
----------------7--------|--5--------4--------|--2----------------|
--5--5-5-5--5-5-5--------|--3--------2--------|--0----------------|
--5--5-5-5--5-5-5--------|--3--------2--------|--0----------------|
--5--5-5-5--5-5-5--------|--3--------2--------|--0----------------|


-------------------|-------------------|-------------------|
-------------------|-------------------|-------------------|
-------------------|-------------------|-------------------|
-------------------|-------------------|-------------------|
-------------------|-------------------|-------------------|
-------------------|-------------------|-------------------|


  ^       ^                  ^       ^
  Q    E  Q    E  S  S E     Q    E  Q    E  S  S E      E.   E.  E  H
--5----L--0-------0--0-0--|--5----L--0-------0--0-0--|------------------------|
--8----L--6----6--6h-8-8--|--8----L--6----6--6h-8-8--|--11---10---------------|
--7----L--5----5--5--5-5--|--7----L--5----5--5--5-5--|------------7--L--------|
--0----L-------0----------|--0----L-------0----------|------------------------|
--------------------------|--------------------------|------------------------|
--------------------------|--------------------------|------------------------|


   E.   E.  Q    S S Q       S S S S S S S S S S S S S S S S
--------------------------|----------0---------------5-------|
--11---10-----------------|------6-----6---6-----6-----6---6-|
------------7----L--------|----7---7-----7-----7---7-----7---|
--------------------------|--0---------------0---------------|
--------------------------|----------------------------------|
--------------------------|----------------------------------|


  S S S S S S S S S S S S S S S S    S S S S S S S S S S S S S S S S
----------0---------------8-------|----------0---------------5-------|
------6-----6---6-----6-----6---6-|------6-----6---6-----6-----6---6-|
----7---7-----7-----7---7-----7---|----7---7-----7-----7---7-----7---|
--8---------------8---------------|--0---------------0---------------|
----------------------------------|----------------------------------|
----------------------------------|----------------------------------|


                                       ^        ^
  S S S S S S S S  S S S S S S S  S    H        H
----------0----------------0--------|--1--------3--------|
------6-----6----------6-----6------|--1--------3--------|
----7---7-----7------7---7-----7----|--3--------5--------|
--8-------------8-10-------------10-|--3--------5--------|
------------------------------------|--1--------3--------|
------------------------------------|--------------------|


  S S   S E  S S E   S   S   S   S   S   S   S
------------------------------------------------|
------------------------------------------------|
------------------------------------------------|
--3-0-5g7-5--3-2-3---2---0---2---3---2---0------|
--------------------(3)-(1)-(3)-(5)-(3)-(1)--3--|
--------------------------------------------(7)-|


  E  S S E  S S  S  S S S S S S S    S S E  E  S E  S S S S S S S
--1--1-1-1--1-1-(x)-3-3-3-3-3-3-3-|--0-0-0--0--0-0--0-0-0-0-0-0-0-|
--1--1-1-1--1-1-(x)-5-5-5-5-5-5-5-|--3-3-3--3--3-3--3-3-3-3-3-3-3-|
--3--3-3-3--3-3-(x)-5-5-5-5-5-5-5-|--2-2-2--2--2-2--2-2-2-2-2-2-2-|
--3--3-3-3--3-3-(x)-5-5-5-5-5-5-5-|--0-0-0--0--0-0--0-0-0-0-0-0-0-|
--1--1-1-1--1-1-(x)-3-3-3-3-3-3-3-|--0-0-0--0--0-0--0-0-0-0-0-0-0-|
----------------------------------|--0-0-0--0--0-0--0-0-0-0-0-0-0-|


  E  S S E  S S  S  S S S S S S S
--1--1-1-1--1-1-(x)-3-3-3-3-3-3-3-|
--1--1-1-1--1-1-(x)-5-5-5-5-5-5-5-|
--3--3-3-3--3-3-(x)-5-5-5-5-5-5-5-|
--3--3-3-3--3-3-(x)-5-5-5-5-5-5-5-|
--1--1-1-1--1-1-(x)-3-3-3-3-3-3-3-|
----------------------------------|


  S S   S E  S S E   S   S   S   S   S   S   S
------------------------------------------------|
------------------------------------------------|
------------------------------------------------|
--3-0-5g7-5--3-2-3---3---3---0---2---2---2------|
--------------------(5)-(5)-(1)-(3)-(3)-(3)--3--|
--------------------------------------------(7)-|


                                                                 ^
  E  S S E  S S  S  S S S S S S S    S S E  E  S E  E  S S S S S H
--1--1-1-1--1-1-(x)-3-3-3-3-3-3-3-|--0-0-0--0--0-0--0--0-0-0-0-0-0--------|
--1--1-1-1--1-1-(x)-5-5-5-5-5-5-5-|--3-3-3--3--3-3--3--3-3-3-3-3-3--------|
--3--3-3-3--3-3-(x)-5-5-5-5-5-5-5-|--2-2-2--2--2-2--2--2-2-2-2-2-2--------|
--3--3-3-3--3-3-(x)-5-5-5-5-5-5-5-|--0-0-0--0--0-0--0--0-0-0-0-0-0--------|
--1--1-1-1--1-1-(x)-3-3-3-3-3-3-3-|--0-0-0--0--0-0--0--0-0-0-0-0-0--------|
----------------------------------|--0-0-0--0--0-0--0--0-0-0-0-0-0--------|


  ^ v              ^ v    ^ v             ^
  S S H.           S S    S S H        E  S S S S
-------------------0-0-|--1-1-------------3-5-3---|
--3-3--------------3-3-|--3-3-------------3-----5-|
--2-2--------------2-2-|--2-2-------------3-------|
--0-0--------------0-0-|--0-0---------------------|
--0-0--------------0-0-|--0-0---------------------|
--0-0--------------0-0-|--0-0---------------------|


   S  S  E   S  S  S  E   S  S  E   S  E     S S E  S S S E  S E  S S S S
---8--8--8---8--8--8--8---8--8--8---8--8--|--5-5-5--5-5-5-5--5-5--5-5-5-5-|
--11-11-11--11-11-11-11--11-11-11--11-11--|--8-8-8--8-8-8-8--8-8--8-8-8-8-|
--10-10-10--10-10-10-10--10-10-10--10-10--|--7-7-7--7-7-7-7--7-7--7-7-7-7-|
---8--8--8---8--8--8--8---8--8--8---8--8--|--5-5-5--5-5-5-5--5-5--5-5-5-5-|
---8--8--8---8--8--8--8---8--8--8---8--8--|--5-5-5--5-5-5-5--5-5--5-5-5-5-|
---8--8--8---8--8--8--8---8--8--8---8--8--|--5-5-5--5-5-5-5--5-5--5-5-5-5-|


  S S E  S S S E  S E  S S S S    S S E  S S S E  S E  S S S S
--0-0-0--0-0-0-0--0-0--0-0-0-0-|--0-0-1--1-1-1-0--0-0--0-0-0-0-|
--3-3-3--3-3-3-3--3-3--3-3-3-3-|--3-3-3--3-3-3-3--3-3--3-3-3-3-|
--2-2-2--2-2-2-2--2-2--2-2-2-2-|--2-2-2--2-2-2-2--2-2--2-2-2-2-|
--0-0-0--0-0-0-0--0-0--0-0-0-0-|--0-0-0--0-0-0-0--0-0--0-0-0-0-|
--0-0-0--0-0-0-0--0-0--0-0-0-0-|--0-0-0--0-0-0-0--0-0--0-0-0-0-|
--0-0-0--0-0-0-0--0-0--0-0-0-0-|--0-0-0--0-0-0-0--0-0--0-0-0-0-|


   S  S  E   S  S  S  E   S  S  E   S  E     S S E  S S S E  S S  E   S  E
---8--8--8---8--8--8--8---8--8--8---8--8--|--5-5-5--5-5-5-5--5-5-10--10-10--|
--11-11-11--11-11-11-11--11-11-11--11-11--|--8-8-8--8-8-8-8--8-8-13--13-13--|
--10-10-10--10-10-10-10--10-10-10--10-10--|--7-7-7--7-7-7-7--7-7-12--12-12--|
---8--8--8---8--8--8--8---8--8--8---8--8--|--5-5-5--5-5-5-5--5-5-10--10-10--|
---8--8--8---8--8--8--8---8--8--8---8--8--|--5-5-5--5-5-5-5--5-5-10--10-10--|
---8--8--8---8--8--8--8---8--8--8---8--8--|--5-5-5--5-5-5-5--5-5-10--10-10--|


  S S S S S S S S S S S S S S S S    S S S S S S S S S S S S S S S S
----------------------------------|--------------------------------6-|
--8---8---8---8---8---8---8---8---|--8---8---8---8---6---6---6---6---|
----5---5---5---5---8---8---8---8-|----3---3---3---3---3---3---3-----|
----------------------------------|----------------------------------|
----------------------------------|----------------------------------|
----------------------------------|----------------------------------|


  S S S S S S S S S S S S S S S S    S S S S S S S S S S S S S S S S
----------------------------------|--------------------------------6-|
--8---8---8---8---8---8---8---8---|--8---8---8---8---6---6---6---6---|
----5---5---5---5---8---8---8---8-|----3---3---3---3---3---3---3-----|
----------------------------------|----------------------------------|
----------------------------------|----------------------------------|
----------------------------------|----------------------------------|


  S S S S S S S S S S S S S S S S    S S S S S S S S S S S S S S S S
----------------------------------|--------------------------------6-|
--8---8---8---8---8---8---8---8---|--8---8---8---8---6---6---6---6---|
----5---5---5---5---8---8---8---8-|----3---3---3---3---3---3---3-----|
----------------------------------|----------------------------------|
----------------------------------|----------------------------------|
----------------------------------|----------------------------------|


  S S S S S S S S S S S S S S S S    S S S S S S S S S S S S S S S S
----------------------------------|----------------------------------|
--8---8---8---8---8---8---8---8---|--8---8---8---8---6---6---6---6---|
----5---5---5---5---8---8---8---8-|----3---3---3---3---3---3---3---3-|
----------------------------------|----------------------------------|
----------------------------------|----------------------------------|
----------------------------------|----------------------------------|


  S S S S S S S S    E  S S E  S S  S  S S S S S S S
------------------|--1--1-1-1--1-1-(x)-3-3-3-3-3-3-3-|
--3-3-3-3-3-3-3-3-|--1--1-1-1--1-1-(x)-5-5-5-5-5-5-5-|
--2-2-2-2-2-2-2-2-|--3--3-3-3--3-3-(x)-5-5-5-5-5-5-5-|
--0-0-0-0-0-0-0-0-|--3--3-3-3--3-3-(x)-5-5-5-5-5-5-5-|
--0-0-0-0-0-0-0-0-|--1--1-1-1--1-1-(x)-3-3-3-3-3-3-3-|
--0-0-0-0-0-0-0-0-|----------------------------------|


  S S   S E  S S E   S   S   S   S   S   S   S
------------------------------------------------|
------------------------------------------------|
------------------------------------------------|
--3-0-5g7-5--3-2-3---2---0---2---3---2---0------|
--------------------(3)-(1)-(3)-(5)-(3)-(1)--3--|
--------------------------------------------(7)-|


  E  S S E  S S  S  S S S S S S S    S S E  E  S E  S S S S S S S
--1--1-1-1--1-1-(x)-3-3-3-3-3-3-3-|--0-0-0--0--0-0--0-0-0-0-0-0-0-|
--1--1-1-1--1-1-(x)-5-5-5-5-5-5-5-|--3-3-3--3--3-3--3-3-3-3-3-3-3-|
--3--3-3-3--3-3-(x)-5-5-5-5-5-5-5-|--2-2-2--2--2-2--2-2-2-2-2-2-2-|
--3--3-3-3--3-3-(x)-5-5-5-5-5-5-5-|--0-0-0--0--0-0--0-0-0-0-0-0-0-|
--1--1-1-1--1-1-(x)-3-3-3-3-3-3-3-|--0-0-0--0--0-0--0-0-0-0-0-0-0-|
----------------------------------|--0-0-0--0--0-0--0-0-0-0-0-0-0-|


  E  S S E  S S  S  S S S S S S S
--1--1-1-1--1-1-(x)-3-3-3-3-3-3-3-|
--1--1-1-1--1-1-(x)-5-5-5-5-5-5-5-|
--3--3-3-3--3-3-(x)-5-5-5-5-5-5-5-|
--3--3-3-3--3-3-(x)-5-5-5-5-5-5-5-|
--1--1-1-1--1-1-(x)-3-3-3-3-3-3-3-|
----------------------------------|


  S S   S E  S S E   S   S   S   S   S   S   S
------------------------------------------------|
------------------------------------------------|
------------------------------------------------|
--3-0-5g7-5--3-2-3---3---3---0---2---2---2------|
--------------------(5)-(5)-(1)-(3)-(3)-(3)--3--|
--------------------------------------------(7)-|


  E  S S E  S S  S  S S S S S S S    S S E  E  S E  E  S S S S S
--1--1-1-1--1-1-(x)-3-3-3-3-3-3-3-|--0-0-0--0--0-0--0--0-0-0-0-0-|
--1--1-1-1--1-1-(x)-5-5-5-5-5-5-5-|--3-3-3--3--3-3--3--3-3-3-3-3-|
--3--3-3-3--3-3-(x)-5-5-5-5-5-5-5-|--2-2-2--2--2-2--2--2-2-2-2-2-|
--3--3-3-3--3-3-(x)-5-5-5-5-5-5-5-|--0-0-0--0--0-0--0--0-0-0-0-0-|
--1--1-1-1--1-1-(x)-3-3-3-3-3-3-3-|--0-0-0--0--0-0--0--0-0-0-0-0-|
----------------------------------|--0-0-0--0--0-0--0--0-0-0-0-0-|


                      ^
  S S E  E  S E  E  S Q       W
--0-0-0--0--0-0--0--0-0----|--L----------------||
--3-3-3--3--3-3--3--3-3----|--L----------------||
--2-2-2--2--2-2--2--2-2----|--L----------------||
--0-0-0--0--0-0--0--0-0----|--L----------------||
--0-0-0--0--0-0--0--0-0----|--L----------------||
--0-0-0--0--0-0--0--0-0----|--L----------------||




GTR R
     H
E||-----------|
B||-----------|
G||-----------|
D||-----------|
A||-----------|
D||-----------|


   S    S    S    S    S    S    S    S   S    S    S    S    S    S    S    S
--------------------------------------------------------------------------------|
--------------------------------------------------------------------------------|
-------10----9---10----9---------9------------10----9---10----9---------9---10--|
---7--(12)-(10)-(12)-(10)--10--(10)--10---7--(12)-(10)-(12)-(10)--10--(10)-(12)-|
--(8)---------------------(12)------(12)-(8)---------------------(12)-----------|
--------------------------------------------------------------------------------|


   S   S   S   S   S   S   S   S   S   S   S   S   S   S   S   S
------------------------------------------------------------------|
------------------------------------------------------------------|
-------7---5---7---5-------5-----------------------5---3---5---7--|
---3--(8)-(7)-(8)-(7)--7--(7)--7---3---7---5---3--(7)-(5)-(7)-(8)-|
--(5)-----------------(8)-----(8)-(5)-(8)-(7)-(5)-----------------|
------------------------------------------------------------------|


   S    S    S    S    S    S    S    S   S    S    S    S    S    S    S    S
--------------------------------------------------------------------------------|
--------------------------------------------------------------------------------|
-------10----9---10----9---------9------------10----9---10----9---------9---10--|
---7--(12)-(10)-(12)-(10)--10--(10)--10---7--(12)-(10)-(12)-(10)--10--(10)-(12)-|
--(8)---------------------(12)------(12)-(8)---------------------(12)-----------|
--------------------------------------------------------------------------------|


   S   S   S   S   S   S   S   S    H             H          H
----------------------------------------------|------------------------|
----------------------------------------------|------------------------|
-------7---5---7---5-------5------------------|------------------------|
---3--(8)-(7)-(8)-(7)--7--(7)--7----8---------|---7----------5---------|
--(5)-----------------(8)-----(8)-(10)--------|--(8)--------(7)--------|
----------------------------------------------|------------------------|


  S S S E  S S E  S S S S S E     S S S E  S S E  S S S S S S S
--------0---------------0------|--------0---------------0-1-----|
------3----3---3----3-----3----|------3----3---3----3-------3---|
----2--------2--------2-----2--|----2--------2--------2-------2-|
--0---------------0------------|--0---------------0-------------|
-------------------------------|--------------------------------|
-------------------------------|--------------------------------|


  S S S E  S S E  S S S S S E     S S S E  S S E  S S S S S S S
--------0---------------0------|--------0---------------8-------|
------6----6--------6-----6----|------6----6--------6-----6-----|
----7--------7----7---7-----7--|----7--------7----7---7-----7---|
--8------------8---------------|--8------------8--------------8-|
-------------------------------|--------------------------------|
-------------------------------|--------------------------------|


  S S S E  S S E  S S S S S E     S S S S S S S S S S S S S S S S
--------1------0--------0-1----|----------1-----0---------0-1-----|
------3----3--------3-------3--|------3-----3-----3---3-------3---|
----2--------2--------2--------|----2---2-----2---------2-------2-|
--0---------------0------------|--0-----------------0-------------|
-------------------------------|----------------------------------|
-------------------------------|----------------------------------|


  S S S E  S S E  S S S S S E     S S S S S S S E  S S  E   S  E
--------0---------------0------|----------8-----8------13---------|
------6----6--------6-----6----|------6-----6--------------13-----|
----7--------7----7---7-----7--|----7---7-----7------7--------14--|
--8------------8---------------|--8----------------8--------------|
-------------------------------|----------------------------------|
-------------------------------|----------------------------------|


  S S E  S S S E  S E  S S S S    S S E  S S S E  S E  S S S S
-------------------------------|--1-1-1--1-1-1-1--1-1--1-1-1-1-|
--3-3-3--3-3-3-3--3-3--3-3-3-3-|--1-1-1--1-1-1-1--1-1--1-1-1-1-|
--2-2-2--2-2-2-2--2-2--2-2-2-2-|--3-3-3--3-3-3-3--3-3--3-3-3-3-|
--0-0-0--0-0-0-0--0-0--0-0-0-0-|--3-3-3--3-3-3-3--3-3--3-3-3-3-|
--0-0-0--0-0-0-0--0-0--0-0-0-0-|--1-1-1--1-1-1-1--1-1--1-1-1-1-|
--0-0-0--0-0-0-0--0-0--0-0-0-0-|-------------------------------|


  S S E  S S S E  S E  S S S S    S S E  S S S S S S E  S E  S
-------------------------------|--1-1-1--1-1-1-1-3-3-3--3-3--3-|
--3-3-3--3-3-3-3--3-3--3-3-3-3-|--1-1-1--1-1-1-1-3-3-3--3-3--3-|
--2-2-2--2-2-2-2--2-2--2-2-2-2-|--3-3-3--3-3-3-3-5-5-5--5-5--5-|
--0-0-0--0-0-0-0--0-0--0-0-0-0-|--3-3-3--3-3-3-3-5-5-5--5-5--5-|
--0-0-0--0-0-0-0--0-0--0-0-0-0-|--1-1-1--1-1-1-1-3-3-3--3-3--3-|
--0-0-0--0-0-0-0--0-0--0-0-0-0-|-------------------------------|


  ^             ^
  E  S S E  S S S S S S S S S S    S S S E  S S E  S S S S S S S
---------1--------------3-------|--5-5-5-5--5-5-5--5-5-5-5-3-3-3-|
-----1------1-------3-----3-----|--6-6-6-6--6-6-6--6-6-6-6-------|
--3----3------3-5-----5-----5---|--7-7-7-7--7-7-7--7-7-7-7-5-5-5-|
--3-----------L-5-5---------L-5-|--7-7-7-7--7-7-7--7-7-7-7-5-5-5-|
--1-----------L-3-------------L-|--5-5-5-5--5-5-5--5-5-5-5-3-3-3-|
--------------------------------|--------------------------------|


  E  S S E  S S  S  S S S S S S S    S S E  E  S E  S S S S S S S
--1--1-1-1--1-1-(x)-3-3-3-3-3-3-3-|--0-0-0--0--0-0--0-0-0---------|
--1--1-1-1--1-1-(x)-5-5-5-5-5-5-5-|--3-3-3--3--3-3--3-3-3-3-3-3-3-|
--3--3-3-3--3-3-(x)-5-5-5-5-5-5-5-|--2-2-2--2--2-2--2-2-2-7-7-5-5-|
--3--3-3-3--3-3-(x)-5-5-5-5-5-5-5-|--0-0-0--0--0-0--0-0-0-7-7-5-5-|
--1--1-1-1--1-1-(x)-3-3-3-3-3-3-3-|--0-0-0--0--0-0--0-0-0-5-5-3-3-|
----------------------------------|--0-0-0--0--0-0--0-0-0---------|


  ^
  E  S S E  S S  S  S S S S S S S    S S S E  S S E  S S S S S S S
---------1------(x)-------3-------|--5-5-5-5--5-5-5--5-5-5-5-3-3-3-|
-----1------1---(x)---3-----3-----|--6-6-6-6--6-6-6--6-6-6-6-------|
--3----3------3-(x)-----5-----5---|--7-7-7-7--7-7-7--7-7-7-7-5-5-5-|
--3-----------L-(x)-5-----------5-|--7-7-7-7--7-7-7--7-7-7-7-5-5-5-|
--1-----------L-(x)---------------|--5-5-5-5--5-5-5--5-5-5-5-3-3-3-|
----------------------------------|--------------------------------|


                                                                 ^
  E  S S E  S S  S  S S S S S S S    S S E  E  S E  E  S S S S S E  E  E  E
--1--1-1-1--1-1-(x)-3-3-3-3-3-3-3-|--0-0-0--0--0-0--0--0-0-0-0-0-0--x--x--x--|
--1--1-1-1--1-1-(x)-5-5-5-5-5-5-5-|--3-3-3--3--3-3--3--3-3-3-3-3-3--x--x--x--|
--3--3-3-3--3-3-(x)-5-5-5-5-5-5-5-|--2-2-2--2--2-2--2--2-2-2-2-2-2--x--x--x--|
--3--3-3-3--3-3-(x)-5-5-5-5-5-5-5-|--0-0-0--0--0-0--0--0-0-0-0-0-0--x--x--x--|
--1--1-1-1--1-1-(x)-3-3-3-3-3-3-3-|--0-0-0--0--0-0--0--0-0-0-0-0-0--x--x--x--|
----------------------------------|--0-0-0--0--0-0--0--0-0-0-0-0-0-----------|


  S S S E  S S E  S S S S S E     S S S E  S S E  S S S S S S S
--------0---------------0------|--------0---------------0-1-----|
------3----3---3----3-----3----|------3----3---3----3-------3---|
----2--------2--------2-----2--|----2--------2--------2-------2-|
--0---------------0------------|--0---------------0-------------|
-------------------------------|--------------------------------|
-------------------------------|--------------------------------|


  S S S E  S S E  S S S S S E     S S S E  S S E  S S S S S S S
--------0---------------0------|--------0---------------8-------|
------6----6--------6-----6----|------6----6--------6-----6-----|
----7--------7----7---7-----7--|----7--------7----7---7-----7---|
--8------------8---------------|--8------------8--------------8-|
-------------------------------|--------------------------------|
-------------------------------|--------------------------------|


  S S S E  S S E  S S S S S E     S S S S S S S S S S S S S S S S
--------1------0--------0-1----|----------1-----0---------0-1-----|
------3----3--------3-------3--|------3-----3-----3---3-------3---|
----2--------2--------2--------|----2---2-----2---------2-------2-|
--0---------------0------------|--0-----------------0-------------|
-------------------------------|----------------------------------|
-------------------------------|----------------------------------|


  S S S E  S S E  S S S S S E     S S S S S S S E  S S  E   S  E
--------0---------------0------|----------8-----8------13---------|
------6----6--------6-----6----|------6-----6--------------13-----|
----7--------7----7---7-----7--|----7---7-----7------7--------14--|
--8------------8---------------|--8----------------8--------------|
-------------------------------|----------------------------------|
-------------------------------|----------------------------------|


-------------------|-------------------|-------------------|-------------------|
-------------------|-------------------|-------------------|-------------------|
-------------------|-------------------|-------------------|-------------------|
-------------------|-------------------|-------------------|-------------------|
-------------------|-------------------|-------------------|-------------------|
-------------------|-------------------|-------------------|-------------------|


  S S S S S S S S S S S S S S S S    S S S S S S S S S S S S S S S  S
----------------------------------|-----------------------------------|
----------------------------------|--------------------------------11-|
--8---8---8---8---8---8---8---8---|--7---7---7---7---5---5---5---5----|
----5---5---5---5---8---8---8---8-|----8---8---8---8---8---8---8------|
----------------------------------|-----------------------------------|
----------------------------------|-----------------------------------|


  S S S S S S S S S S S S S S S S    S S S S S S S S S S S S S S S S
----------------------------------|----------------------------------|
----------------------------------|----------------------------------|
--8---8---8---8---8---8---8---8---|--7---7---7---7---5---5---5---5---|
----5---5---5---5---8---8---8---8-|----8---8---8---8---8---8---8---8-|
----------------------------------|----------------------------------|
----------------------------------|----------------------------------|


                     ^
  S S S S S S S S    E  S S E  S S  S  S S S S S S S
------------------|---------1------(x)-------3-------|
--3-3-3-3-3-3-3-3-|-----1------1---(x)---3-----3-----|
--2-2-2-2-2-2-2-2-|--3----3------3-(x)-----5-----5---|
--0-0-0-0-0-0-0-0-|--3-----------L-(x)-5-----------5-|
--0-0-0-0-0-0-0-0-|--1-----------L-(x)---------------|
--0-0-0-0-0-0-0-0-|----------------------------------|


  S S S E  S S E  S S S S S S S    E  S S E  S S  S  S S S S S S S
--5-5-5-5--5-5-5--5-5-5-5-------|--1--1-1-1--1-1-(x)-3-3-3-3-3-3-3-|
--6-6-6-6--6-6-6--6-6-6-6-5-5-5-|--1--1-1-1--1-1-(x)-5-5-5-5-5-5-5-|
--7-7-7-7--7-7-7--7-7-7-7-5-5-5-|--3--3-3-3--3-3-(x)-5-5-5-5-5-5-5-|
--7-7-7-7--7-7-7--7-7-7-7-5-5-5-|--3--3-3-3--3-3-(x)-5-5-5-5-5-5-5-|
--5-5-5-5--5-5-5--5-5-5-5-3-3-3-|--1--1-1-1--1-1-(x)-3-3-3-3-3-3-3-|
--------------------------------|----------------------------------|


   S  S  S  S  S  S  S  E   S  S  S  S  S  S  S
------------------------------------------------|
--10-10-10-10-10--8--8--8--10-10-10-10--8--8--8-|
--12-12-12-12-12-10-10-10--12-12-12-12-10-10-10-|
--12-12-12-12-12-12-12-12--12-12-12-12-12-12-12-|
------------------------------------------------|
------------------------------------------------|


  ^
  E  S S E  S S  S  S S S S S S S    S S S E  S S E  S S S S S S S
---------1------(x)-------3-------|--5-5-5-5--5-5-5--5-5-5-5-------|
-----1------1---(x)---3-----3-----|--6-6-6-6--6-6-6--6-6-6-6-5-5-5-|
--3----3------3-(x)-----5-----5---|--7-7-7-7--7-7-7--7-7-7-7-5-5-5-|
--3-----------L-(x)-5-----------5-|--7-7-7-7--7-7-7--7-7-7-7-5-5-5-|
--1-----------L-(x)---------------|--5-5-5-5--5-5-5--5-5-5-5-3-3-3-|
----------------------------------|--------------------------------|


  E  S S E  S S  S  S S S S S S S    S S E  E  S E  E  S S S S S
--1--1-1-1--1-1-(x)-3-3-3-3-3-3-3-|--0-0-0--0--0-0--0--0-0-0-0-0-|
--1--1-1-1--1-1-(x)-5-5-5-5-5-5-5-|--3-3-3--3--3-3--3--3-3-3-3-3-|
--3--3-3-3--3-3-(x)-5-5-5-5-5-5-5-|--2-2-2--2--2-2--2--2-2-2-2-2-|
--3--3-3-3--3-3-(x)-5-5-5-5-5-5-5-|--0-0-0--0--0-0--0--0-0-0-0-0-|
--1--1-1-1--1-1-(x)-3-3-3-3-3-3-3-|--0-0-0--0--0-0--0--0-0-0-0-0-|
----------------------------------|--0-0-0--0--0-0--0--0-0-0-0-0-|


                      ^
  S S E  E  S E  E  S Q       W
--0-0-0--0--0-0--0--0-0----|--L----------------||
--3-3-3--3--3-3--3--3-3----|--L----------------||
--2-2-2--2--2-2--2--2-2----|--L----------------||
--0-0-0--0--0-0--0--0-0----|--L----------------||
--0-0-0--0--0-0--0--0-0----|--L----------------||
--0-0-0--0--0-0--0--0-0----|--L----------------||




Duration Legend
---------------
W - whole
H - half
Q - quarter
E - 8th
S - 16th
T - 32nd
X - 64th
. - note dotted
|-n-|  - n-tuplets


Tablature Legend
----------------
L - tied note
x - dead note
g - grace note
(n) - ghost note
> - accentuded note
NH - natural harmonic
AH - artificial harmonic
TH - tapped harmonic
SH - semi harmonic
PH - pitch harmonic
h - hammer on
p - pull off
b - bend
br - bendRelease
pb - preBend
pbr - preBendRelease
brb - bendReleaseBend
\n/ - tremolo bar dip
\n - tremolo bar dive
-/n - tremolo bar Release up
/n\ - tremolo bar inverted dip
/n - tremolo bar return
-\n - tremolo bar Release down
S - shift slide
s - legato slide
/ -  slide into from below or out of upwards
\ -  slide into from above or out of downwards
~ - vibrato
W - wide vibrato
tr - tril'
TP - tremolo picking
T - tapping
S - slap
P - pop
< - fade in
^ - brush up
v - brush down
comments
We did not receive enough feedback on this tab! Please rate:
print report bad tab
1 2 3 4 5
I want to post or [tab]
guest
You may want to rate the tab now too:
select rating
Please do not post tabs as comments. Select "correction" instead!