Oops, an error
Loading. Please wait.

Next Year Bass Tab

83 views 1 this week
no commentswrite comment
1 2 3 4 5
please rate
add to favorites launch autoscroll
font size
0
reset
Autoscroll
+/-
esc
set tempo
stop
Contributor
Difficulty
Tuning
novice
C G C F A D
WARNING: You are trying to view
                                    content from Ultimate-Guitar.com
                                    in an unauthorized application,
                                    which is prohibited.

                                    Please use an official Ultimate
                                    Guitar Tabs application for iPhone,
                                    iPad or Android to access legitimate
                                    chords, guitar, bass, and drum tabs
                                    from Ultimate-Guitar.com database.

                                    Type "ultimate guitar tabs" in Apple
                                    App Store's or Android Market's
                                    search to find the application.
  Next Year                                     


                                                            The Eleventh Failure
Bass
     E  E  E  E  E  E  E  E     E  E  E  E  E  E  E  E   
A||--------------------------|--------------------------|
F||--------------------------|--------------------------|
C||--------------------------|--------------------------|
G||--------------------------|--------------------------|
C||--8--8--8--8--8--8--8--8--|--8--8--8--8--8--8--8--8--|
 
 
  E  E  E  E  E  E  E  E     E  E  E  E  E  E  E  E   
--------------------------|--------------------------|
--------------------------|--------------------------|
--------------------------|--------------------------|
--------------------------|--------------------------|
--5--5--5--5--5--5--5--5--|--5--5--5--5--5--5--5--5--|
 
 
  E  E  E  E  E  E  E  E     E  E  E  E  E  E  E  E   
--------------------------|--------------------------|
--------------------------|--------------------------|
--------------------------|--------------------------|
--------------------------|--------------------------|
--8--8--8--8--8--8--8--8--|--8--8--8--8--8--8--8--8--|
 
 
                             |--------3--------|                             
  E  E  E  E  E  E  E  E     H        H        H           W                 
--------------------------|-----------------------------|-------------------|
--------------------------|-----------------------------|-------------------|
--------------------------|-----------------------------|-------------------|
--------------------------|-----------------------------|-------------------|
--5--5--5--5--5--5--5--5--|--5--------3--------2--------|--0----------------|
 
 
  W                   W                   W                   W                 
-------------------|-------------------|-------------------|-------------------|
-------------------|-------------------|-------------------|-------------------|
-------------------|-------------------|-------------------|-------------------|
-------------------|-------------------|-------------------|-------------------|
--L----------------|--L----------------|--L----------------|--L----------------|
 
 
  W                   W                    W                 
-------------------|-------------------|--------------------|
-------------------|-------------------|--------------------|
-------------------|-------------------|--------------------|
-------------------|-------------------|--------------------|
--L----------------|--5----------------|--10----------------|
 
 
  S S E  E  E  E  E  E  E     E  E   E  E   E   E   E   E   
---------------------------|-------------------------------|
---------------------------|-------------------------------|
---------------------------|-------------------------------|
---------8-----5-----7-----|--8-----10---------------------|
--0-0-0-----0-----0-----0--|-----0------0--10--10--10--10--|
 
 
  S S E  E  E  E  E  E  E     E  E   E  E  E  E  E  E   
---------------------------|---------------------------|
---------------------------|---------------------------|
---------------------------|---------------------------|
---------8-----5-----7-----|--8-----10-----------------|
--0-0-0-----0-----0-----0--|-----0------0--8--8--8--8--|
 
 
  S S E  E  E  E  E  E  E     E  E  E  E  E  E  E  E   
---------------------------|--------------------------|
---------------------------|--------------------------|
---------------------------|--------------------------|
---------8-----5-----7-----|--8-----7-----------------|
--8-8-8-----8-----8-----8--|-----8-----8--5--5--5--5--|
 
 
  S S E  E  E  S  S  E   Q        S  S  E   E   E  S  S  E  Q     
------------------------------|----------------------------------|
------------------------------|----------------------------------|
------------------------------|--------------------3h-5p-3--2----|
---------8-----5h-7p-5--------|------------10--------------------|
--5-5-5-----5-----------10----|--10-10-10------10----------------|
 
 
                      >                             
                      S S E  S S S S S S S E  S E   
-------------------|-------------------------------|
-------------------|-------------------------------|
-------------------|-------------------------------|
-------------------|-------------------------------|
-------------------|--0-0-0--0-0-0-0-0---0-0--0-0--|
 
 
  S S E  S S E  S S S E  S E     H        H         
------------------------------|--------------------|
------------------------------|--------------------|
------------------------------|--------------------|
------------------------------|--------------------|
--0-0-0--0-0-0--0---0-0--0-0--|--5--------7--------|
 
 
  S S E  S S E  S S S E  S E     S S E  S S S S S S S E  S E   
------------------------------|-------------------------------|
------------------------------|-------------------------------|
------------------------------|-------------------------------|
------------------------------|-------------------------------|
--0-0-0--0-0-0--0---0-0--0-0--|--0-0-0--0-0-0-0-0---0-0--0-0--|
 
 
  S S E  S S E  S S S E  S E     H        H           W                 
------------------------------|--------------------|-------------------|
------------------------------|--------------------|-------------------|
------------------------------|--------------------|-------------------|
------------------------------|--------------------|-------------------|
--0-0-0--0-0-0--0---0-0--0-0--|--5--------7--------|-------------------|
 
 
  E   Q    E  E  E  E  E  E  E     S S E  E  E  E  E  E  E   
--------------------------------|---------------------------|
--------------------------------|---------------------------|
--------------------------------|---------------------------|
-----------7--------------------|---------5--8-----------5--|
-----10-------8--8--8--8--8--8--|--0-0-0--------0--8--0-----|
 
 
  E  Q     E  E  E  E  E  E  E     S S E  E  E  E  E  E  E   
--------------------------------|---------------------------|
--------------------------------|---------------------------|
--------------------------------|---------------------------|
-----3~-------------------------|---------5--8-----------5--|
--0--------0--0--0--0--0--0--0--|--0-0-0--------0--8--0-----|
 
 
  E   Q     E  E  E  E  E  E  E     S S E  E  E  E  E  E  E   
---------------------------------|---------------------------|
---------------------------------|---------------------------|
---------------------------------|---------------------------|
------------7--------------------|---------5--8-----------5--|
--0--10~-------8--8--8--8--8--8--|--0-0-0--------0--8--0-----|
 
 
  E  Q     E  E  E  E  E  E  E     S S E  H.            
--------------------------------|----------------------|
--------------------------------|----------------------|
--------------------------------|----------------------|
-----3~----7--7--7--7--5--5--5--|----------------------|
--0-----------------------------|--0-0-0---------------|
 
 
  Q.     E  E  E  E  E  E  E     S S E  H.            
------------------------------|----------------------|
------------------------------|----------------------|
------------------------------|----------------------|
------------------------------|----------------------|
---------0--0--0-----0--0--0--|--0-0-0---------------|
 
 
  Q.     E  E  E  E  E  E  E     S S E  H.            
------------------------------|----------------------|
------------------------------|----------------------|
---------2--0--------0--------|----------------------|
---------------3--1-----3--0--|----------------------|
------------------------------|--0-0-0---------------|
 
 
  Q.     E  E  E  E  E  E  E     S S E  H.            
------------------------------|----------------------|
------------------------------|----------------------|
------------------------------|----------------------|
------------------------------|----------------------|
---------0--0--0-----0--0--0--|--0-0-0---------------|
 
 
  Q.     E  E  E  E  E  E  E     E  E  E  E  E  E  E  E   
------------------------------|--------------------------|
------------------------------|--------------------------|
---------2--0--------0--------|--------------------------|
---------------3--1-----3--0--|--------------------------|
------------------------------|--0--0--0--0--0--0--0--0--|
 
 
   E   E   E   E   E   E   E   E     E  E  E  E  E  E  E  E   
----------------------------------|--------------------------|
----------------------------------|--------------------------|
----------------------------------|--------------------------|
----------------------------------|--------------------------|
--12--12--12--12--12--12--12--12--|--8--8--8--8--8--8--8--8--|
 
 
  E  E  E  E  E  E  E  E     E  E  E  E  E  E  E  E   
--------------------------|--------------------------|
--------------------------|--------------------------|
--------------------------|--------------------------|
--------------------------|--------------------------|
--8--8--8--8--8--8--8--8--|--0--0--0--0--0--0--0--0--|
 
 
   E   E   E   E   E   E   E   E     E  E  E  E  E  E  E  E   
----------------------------------|--------------------------|
----------------------------------|--------------------------|
----------------------------------|--------------------------|
----------------------------------|--------------------------|
--12--12--12--12--12--12--12--12--|--8--8--8--8--8--8--8--8--|
 
 
  E  E  E  E  E  E  E  E     Q    H.               Q    H         Q      
--------------------------|--------------------|------------------------|
--------------------------|--------------------|------------------------|
--------------------------|--------------------|------------------------|
--------------------------|--------------------|------------------------|
--8--8--8--8--8--8--8--8--|--8-----------------|--10-------------12\----|
 
 
   E   E   E   E   E   E   E   E      E   E   E   E   E   E   E   E   
----------------------------------|----------------------------------|
----------------------------------|----------------------------------|
----------------------------------|----------------------------------|
----------------------------------|----------------------------------|
--12--12--12--12--12--12--12--12--|--12--12--12--12--12--10--10--10--|
 
 
  Q    Q    Q    Q        Q     Q     Q     Q       S S E  E  E  E  E  E  E   
----------------------|--------------------------|---------------------------|
----------------------|--------------------------|---------------------------|
----------------------|--------------------------|---------------------------|
----------------------|--------------------------|---------------------------|
--8----8----8----8----|--10----10----10----10----|--0-0-0--0-----0-----0--0--|
 
 
  E  E  E  E  S S E  E  E     Q    Q    Q    Q        Q     Q     Q     Q     
---------------------------|----------------------|--------------------------|
---------------------------|----------------------|--------------------------|
---------------------------|----------------------|--------------------------|
---------------------------|----------------------|--------------------------|
-----0--0--0--0-0-0--0--0--|--8----8----8----8----|--10----10----10----10----|
 
 
   E   E   E   E   E   E   E   E      E   E   E   E   E   E   E   E   
----------------------------------|----------------------------------|
----------------------------------|----------------------------------|
----------------------------------|----------------------------------|
----------------------------------|----------------------------------|
--12--12--12--12--12--12--12--12--|--12--12--12--12--12--10--10--10--|
 
 
  Q    Q    Q    Q        Q     Q     Q     Q       S S E  E  E  E  E  E  E   
----------------------|--------------------------|---------------------------|
----------------------|--------------------------|---------------------------|
----------------------|--------------------------|---------------------------|
----------------------|--------------------------|---------------------------|
--8----8----8----8----|--10----10----10----10----|--0-0-0--0-----0-----0--0--|
 
 
  E  E  E  E  S S E  E  E     S S E  E  E  E  E  E  E     E  E  E  E   
---------------------------|---------------------------|--------------|
---------------------------|---------------------------|--------------|
---------------------------|---------------------------|--------------|
---------------------------|---------------------------|--------------|
-----0--0--0--0-0-0--0--0--|--0-0-0--0-----0-----0--0--|-----0--0--0--|
 
 
  H.            Q        E  E  H.              H.           E  E   
----------------------|---------------------|---------------------|
----------------------|---------------------|---------------------|
----------------------|---------------------|---------------------|
----------------------|---------------------|---------------------|
--0------------12\----|--0--0---------------|---------------0--0--|
 
 
  E  E  H.              W                   S S E  E  E  E  E  E  E   
---------------------|-------------------|---------------------------|
---------------------|-------------------|---------------------------|
---------------------|-------------------|---------------------------|
---------------------|-------------------|---------8-----5-----7-----|
--0--0---------------|-------------------|--8-8-8-----8-----8-----8--|
 
 
  E  E   E  E  E  E  E  E     W                    W                 
---------------------------|-------------------|--------------------|
---------------------------|-------------------|--------------------|
---------------------------|-------------------|--------------------|
--8-----10-----------------|-------------------|--------------------|
-----8------8--5--5--5--5--|--5----------------|--10----------------|
 
 
  S S E  E  E  E  E  E  E     E  E   E  E   E   E   E   E   
---------------------------|-------------------------------|
---------------------------|-------------------------------|
---------------------------|-------------------------------|
---------8-----5-----7-----|--8-----10---------------------|
--0-0-0-----0-----0-----0--|-----0------0--10--10--10--10--|
 
 
  S S E  E  E  E  E  E  E     E  E   E  E  E  E  E  E   
---------------------------|---------------------------|
---------------------------|---------------------------|
---------------------------|---------------------------|
---------8-----5-----7-----|--8-----10-----------------|
--0-0-0-----0-----0-----0--|-----0------0--8--8--8--8--|
 
 
  S S E  E  E  E  E  E  E     E  E   E  E  E  E  E  E   
---------------------------|---------------------------|
---------------------------|---------------------------|
---------------------------|---------------------------|
---------8-----5-----7-----|--8-----10-----------------|
--8-8-8-----8-----8-----8--|-----8------8--5--5--5--5--|
 
 
  S S E  E  E  S  S  E   Q        S  S  E   E   E  S  S  E  Q     
------------------------------|----------------------------------|
------------------------------|----------------------------------|
------------------------------|--------------------3h-5p-3--2----|
---------8-----5h-7p-5--------|------------10--------------------|
--5-5-5-----5-----------10----|--10-10-10------10----------------|
 
 
-------------------|-------------------|-------------------|-------------------|
-------------------|-------------------|-------------------|-------------------|
-------------------|-------------------|-------------------|-------------------|
-------------------|-------------------|-------------------|-------------------|
-------------------|-------------------|-------------------|-------------------|
 
 
-------------------|-------------------|-------------------|-------------------|
-------------------|-------------------|-------------------|-------------------|
-------------------|-------------------|-------------------|-------------------|
-------------------|-------------------|-------------------|-------------------|
-------------------|-------------------|-------------------|-------------------|
 
 
-------------------|-------------------|-------------------|-------------------|
-------------------|-------------------|-------------------|-------------------|
-------------------|-------------------|-------------------|-------------------|
-------------------|-------------------|-------------------|-------------------|
-------------------|-------------------|-------------------|-------------------|
 
 
-------------------|-------------------|-------------------|-------------------|
-------------------|-------------------|-------------------|-------------------|
-------------------|-------------------|-------------------|-------------------|
-------------------|-------------------|-------------------|-------------------|
-------------------|-------------------|-------------------|-------------------|
 
 
  S S S S S S S S S S S E  S E     H        E  S E  S E   
--------------------------------|------------------------|
--------------------------------|------------------------|
--------------------------------|------------------------|
--------------------------------|------------------------|
--0-0-0-L-0-0-0-0-0---0-0--0-0--|-----------0--0-0--0-1--|
 
 
  S S S S S S S S S S S E  S E     H        H         
--------------------------------|--------------------|
--------------------------------|--------------------|
--------------------------------|--------------------|
--------------------------------|--------------------|
--0-0-0-L-0-0-0-0-0---0-0--0-0--|--5--------7--------|
 
 
  S S E  S S S S S S S E  S E     H        E  S E  S E   
-------------------------------|------------------------|
-------------------------------|------------------------|
-------------------------------|------------------------|
-------------------------------|------------------------|
--0-0-0--0-0-0-0-0---0-0--0-0--|-----------0--0-0--0-1--|
 
 
  S S E  S S S S S S S E  S E     H        H         
-------------------------------|--------------------|
-------------------------------|--------------------|
-------------------------------|--------------------|
-------------------------------|--------------------|
--0-0-0--0-0-0-0-0---0-0--0-0--|--5--------7--------|
 
 
  S S S S S S S S S S S E  S E     W                E  S E  S E   
--------------------------------|--------------------------------|
--------------------------------|--------------------------------|
--------------------------------|--------------------------------|
--------------------------------|--------------------------------|
--0-0-0-L-0-0-0-0-0---0-0--0-0--|-------------------0--0-0--0-1--|
 
 
  S S S S S S S S S S S E  S S S    S S S S S S S S S S S E  S E   
---------------------------------|--------------------------------|
---------------------------------|--------------------------------|
---------------------------------|--------------------------------|
---------------------------------|--------------------------------|
--0-0-0-L-0-0-0-0-0---0-0--0-0---|--0-0-0-L-0-0-0-0-0---0-0--0-0--|
 
 
  W                E  S E  S E     S S S S S S S S S S S E  S E   
--------------------------------|--------------------------------|
--------------------------------|--------------------------------|
--------------------------------|--------------------------------|
--------------------------------|--------------------------------|
-------------------0--0-0--0-1--|--0-0-0-L-0-0-0-0-0---0-0--0-0--|
 
 
  H        H           H         H           Q    H.            
--------------------|---------------------|--------------------|
--------------------|---------------------|--------------------|
--------------------|---------------------|--------------------|
--------------------|---------------------|--------------------|
--5--------7--------|--8--------10--------|--8-----------------|
 
 
   Q    H         Q         E   E   E   E   E   E   E   E   
------------------------|----------------------------------|
------------------------|----------------------------------|
------------------------|----------------------------------|
------------------------|----------------------------------|
--10-------------12\----|--12--12--12--12--12--12--12--12--|
 
 
   E   E   E   E   E   E   E   E     Q    Q    Q    Q     
----------------------------------|----------------------|
----------------------------------|----------------------|
----------------------------------|----------------------|
----------------------------------|----------------------|
--12--12--12--12--12--10--10--10--|--8----8----8----8----|
 
 
   Q     Q     Q     Q       S S E  E  E  E  E  E  E   
--------------------------|---------------------------|
--------------------------|---------------------------|
--------------------------|---------------------------|
--------------------------|---------------------------|
--10----10----10----10----|--0-0-0--0-----0-----0--0--|
 
 
  E  E  E  E  S S E  E  E     Q    Q    Q    Q        Q     Q     Q     Q     
---------------------------|----------------------|--------------------------|
---------------------------|----------------------|--------------------------|
---------------------------|----------------------|--------------------------|
---------------------------|----------------------|--------------------------|
-----0--0--0--0-0-0--0--0--|--8----8----8----8----|--10----10----10----10----|
 
 
   E   E   E   E   E   E   E   E      E   E   E   E   E   E   E   E   
----------------------------------|----------------------------------|
----------------------------------|----------------------------------|
----------------------------------|----------------------------------|
----------------------------------|----------------------------------|
--12--12--12--12--12--12--12--12--|--12--12--12--12--12--10--10--10--|
 
 
  Q    Q    Q    Q        Q     Q     Q     Q       S S E  E  E  E  E  E  E   
----------------------|--------------------------|---------------------------|
----------------------|--------------------------|---------------------------|
----------------------|--------------------------|---------------------------|
----------------------|--------------------------|---------------------------|
--8----8----8----8----|--10----10----10----10----|--0-0-0--0-----0-----0--0--|
 
 
  E  E  E  E  S S E  E  E     S S E  E  E  E  E  E  E   
---------------------------|---------------------------|
---------------------------|---------------------------|
---------------------------|---------------------------|
---------------------------|---------------------------|
-----0--0--0--0-0-0--0--0--|--0-0-0--0-----0-----0--0--|
 
 
  E  E  E  E  S S E   Q        S S E  E  E  E  E  E  E   
----------------------------|---------------------------|
----------------------------|---------------------------|
----------------------------|---------------------------|
----------------------------|---------------------------|
-----0--0--0--0-0-0--12\----|--0-0-0--0--L--0--L--0--0--|
 
 
  E  E  E  E  S S E  E  E     S S E  E  E  E  E  E  E   
---------------------------|---------------------------|
---------------------------|---------------------------|
---------------------------|---------------------------|
---------------------------|---------------------------|
--L--0--0--0--0-0-0--0--0--|--0-0-0--0--L--0--L--0--0--|
 
 
  E  E  E  E  S S S S E  E    
----------------------------||
----------------------------||
----------------------------||
----------------------------||
--L--0--0--0--0-0-0---0--0--||
 
 
 
 
Duration Legend
---------------
W - whole
H - half
Q - quarter
E - 8th
S - 16th
T - 32nd
X - 64th
. - note dotted
|-n-|  - n-tuplets
 
 
Tablature Legend
----------------
L - tied note
x - dead note
g - grace note
(n) - ghost note
> - accentuded note
NH - natural harmonic
AH - artificial harmonic
TH - tapped harmonic
SH - semi harmonic
PH - pitch harmonic
h - hammer on
p - pull off
b - bend
br - bendRelease
pb - preBend
pbr - preBendRelease
brb - bendReleaseBend
\n/ - tremolo bar dip
\n - tremolo bar dive
-/n - tremolo bar Release up
/n\ - tremolo bar inverted dip
/n - tremolo bar return
-\n - tremolo bar Release down
S - shift slide
s - legato slide
/ -  slide into from below or out of upwards
\ -  slide into from above or out of downwards
~ - vibrato
W - wide vibrato
tr - tril'
TP - tremolo picking
T - tapping
S - slap
P - pop
< - fade in
^ - brush up
v - brush down
comments
We did not receive enough feedback on this tab! Please rate:
print report bad tab
1 2 3 4 5
I want to post or [tab]
guest
You may want to rate the tab now too:
select rating
Please do not post tabs as comments. Select "correction" instead!