Oops, an error
Loading. Please wait.

Next Year Tab

ver1
ver1

Whole song

Interactive

More versions @911Tabs.com
331 views 3 this week
no commentswrite comment
1 2 3 4 5
please rate
Autoscroll
+/-
esc
set tempo
stop
Contributor
Difficulty
Tuning
novice
C G C F A D
Hey! There's an official Ultimate Guitar app which is ideal
for learning songs when you're away from computer. Get the app
WARNING: You are trying to view
                                    content from Ultimate-Guitar.com
                                    in an unauthorized application,
                                    which is prohibited.

                                    Please use an official Ultimate
                                    Guitar Tabs application for iPhone,
                                    iPad or Android to access legitimate
                                    chords, guitar, bass, and drum tabs
                                    from Ultimate-Guitar.com database.

                                    Type "ultimate guitar tabs" in Apple
                                    App Store's or Android Market's
                                    search to find the application.
    Next Year                                     


                                                            The Eleventh Failure
GTR L
      E     E     E     E     E     E     E     E    
D||-------------------------------------------------|
A||-------------------------------------------------|
F||--------10-----9----10-----9-----------9---------|
C||---7---(12)--(10)--(12)--(10)---10---(10)---10---|
G||--(8)--------------------------(12)--------(12)--|
C||-------------------------------------------------|
 
 
   E     E     E     E     E     E     E     E    
-------------------------------------------------|
-------------------------------------------------|
--------10-----9----10-----9-----------9----10---|
---7---(12)--(10)--(12)--(10)---10---(10)--(12)--|
--(8)--------------------------(12)--------------|
-------------------------------------------------|
 
 
   E    E    E    E    E    E    E    E    
------------------------------------------|
------------------------------------------|
--------7----5----7----5---------5--------|
---3---(8)--(7)--(8)--(7)---7---(7)---7---|
--(5)----------------------(8)-------(8)--|
------------------------------------------|
 
 
   E    E    E    E    E    E    E    E    
------------------------------------------|
------------------------------------------|
-----------------------5----3----5----7---|
---3----7----5----3---(7)--(5)--(7)--(8)--|
--(5)--(8)--(7)--(5)----------------------|
------------------------------------------|
 
 
   E     E     E     E     E     E     E     E    
-------------------------------------------------|
-------------------------------------------------|
--------10-----9----10-----9-----------9---------|
---7---(12)--(10)--(12)--(10)---10---(10)---10---|
--(8)--------------------------(12)--------(12)--|
-------------------------------------------------|
 
 
   E     E     E     E     E     E     E     E    
-------------------------------------------------|
-------------------------------------------------|
--------10-----9----10-----9-----------9----10---|
---7---(12)--(10)--(12)--(10)---10---(10)--(12)--|
--(8)--------------------------(12)--------------|
-------------------------------------------------|
 
 
                                              |----------3----------|          
   E    E    E    E    E    E    E    E       H          H          H          
------------------------------------------|-----------------------------------|
------------------------------------------|-----------------------------------|
--------7----5----7----5---------5--------|-----------------------------------|
---3---(8)--(7)--(8)--(7)---7---(7)---7---|---8----------7----------5---------|
--(5)----------------------(8)-------(8)--|--(5)--------(5)--------(5)--------|
------------------------------------------|-----------------------------------|
 
 
  PM PM PM    PM    PM    PM       PM     PM                 
  S  S  E  E  E  E  E  E  E     E  E   E  E  S  S  E   Q     
-----------------------------|------------------------------|
-----------------------------|------------------------------|
-----------------------------|------------------------------|
-----------------------------|------------------------------|
-----------8-----5-----7-----|--8-----10-----7h-8p-7--------|
--0--0--0-----0-----0-----0--|-----0------0-----------10----|
 
 
  PM PM PM    PM    PM    PM       PM     PM               
  S  S  E  E  E  E  E  E  E     E  E   E  E   E  E  E  E   
-----------------------------|----------------------------|
-----------------------------|----------------------------|
-----------------------------|----------------------------|
-----------------------------|----------------------------|
-----------8-----5-----7-----|--8-----10-----10--8--7--5--|
--0--0--0-----0-----0-----0--|-----0------0---------------|
 
 
  PM PM PM    PM    PM    PM       PM     PM                
  S  S  E  E  E  E  E  E  E     E  E   E  E  S  S  E  Q     
-----------------------------|-----------------------------|
-----------------------------|-----------------------------|
-----------------------------|-----------------------------|
-----------------------------|-----------------------------|
-----------8-----5-----7-----|--8-----10-----7h-8p-7-------|
--8--8--8-----8-----8-----8--|-----8------8-----------5----|
 
 
  PM PM PM    PM                   PM PM PM      PM                
  S  S  E  E  E  S  S  E  Q        S  S  E   E   E   E   E  E  E   
-------------------------------|----------------------------------|
-------------------------------|----------------------------------|
-------------------------------|----------------------------------|
-------------------------------|----------------------------------|
-----------8-----5h-7p-5--3----|------------10------12--10--8--7--|
--5--5--5-----5----------------|--10-10-10------10----------------|
 
 
  PM PM PM    PM    PM    PM       PM     PM                 
  S  S  E  E  E  E  E  E  E     E  E   E  E  S  S  E   Q     
-----------------------------|------------------------------|
-----------------------------|------------------------------|
-----------------------------|------------------------------|
-----------------------------|------------------------------|
-----------8-----5-----7-----|--8-----10-----7h-8p-7--------|
--0--0--0-----0-----0-----0--|-----0------0-----------10----|
 
 
  PM PM PM    PM    PM    PM       PM     PM               
  S  S  E  E  E  E  E  E  E     E  E   E  E   E  E  E  E   
-----------------------------|----------------------------|
-----------------------------|----------------------------|
-----------------------------|----------------------------|
-----------------------------|----------------------------|
-----------8-----5-----7-----|--8-----10-----10--8--7--5--|
--0--0--0-----0-----0-----0--|-----0------0---------------|
 
 
  PM PM PM    PM    PM    PM       PM     PM                
  S  S  E  E  E  E  E  E  E     E  E   E  E  S  S  E  Q     
-----------------------------|-----------------------------|
-----------------------------|-----------------------------|
-----------------------------|-----------------------------|
-----------------------------|-----------------------------|
-----------8-----5-----7-----|--8-----10-----7h-8p-7-------|
--8--8--8-----8-----8-----8--|-----8------8-----------5----|
 
 
  PM PM PM    PM                   PM PM PM      PM                 
  S  S  E  E  E  S  S  E  Q        S  S  E   E   E  S   S  E  Q     
-------------------------------|-----------------------------------|
-------------------------------|-----------------------------------|
-------------------------------|-----------------------------------|
-------------------------------|-----------------------------------|
-----------8-----5h-7p-5--3----|------------10------8h-10p-8--7----|
--5--5--5-----5----------------|--10-10-10------10-----------------|
 
 
       PM PM PM             PM PM PM PM PM PM PM PM   PM PM PM PM  
  Q    S  S  E  H           S  S  E  S  S  S  S  S  S S  E  S  E   
-------------------------|----------------------------------------|
-------------------------|----------------------------------------|
-------------------------|----------------------------------------|
-------------------------|----------------------------------------|
-------0--0--0-----------|--0--0--0--0--0--0--0--0----0--0--0--0--|
-------0--0--0-----------|--0--0--0--0--0--0--0--0----0--0--0--0--|
 
 
  PM PM PM PM PM PM PM   PM PM PM PM  
  S  S  E  S  S  E  S  S S  E  S  E   
-------------------------------------|
-------------------------------------|
-------------------------------------|
-------------------------------------|
--0--0--0--0--0--0--0----0--0--0--0--|
--0--0--0--0--0--0--0----0--0--0--0--|
 
 
  S   S S   S  S  S  S  S  S   S  S   S  S   S  S  S  
-----------------------------------------------------|
-----------------------------------------------------|
-----------------------------------------------------|
-----------------------------------------------------|
--------------12p-8-10p-7---------------13p-10-12p-8-|
--8h-12-8h-12-------------12h-14-12h-14--------------|
 
 
  PM PM PM PM PM PM PM   PM PM PM PM    PM PM PM PM PM PM PM PM   PM PM PM PM  
  S  S  E  S  S  E  S  S S  E  S  E     S  S  E  S  S  S  S  S  S S  E  S  E   
-------------------------------------|----------------------------------------|
-------------------------------------|----------------------------------------|
-------------------------------------|----------------------------------------|
-------------------------------------|----------------------------------------|
--0--0--0--0--0--0--0----0--0--0--0--|--0--0--0--0--0--0--0--0----0--0--0--0--|
--0--0--0--0--0--0--0----0--0--0--0--|--0--0--0--0--0--0--0--0----0--0--0--0--|
 
 
  PM PM PM PM PM PM PM   PM PM PM PM  
  S  S  E  S  S  E  S  S S  E  S  E   
-------------------------------------|
-------------------------------------|
-------------------------------------|
-------------------------------------|
--0--0--0--0--0--0--0----0--0--0--0--|
--0--0--0--0--0--0--0----0--0--0--0--|
 
 
  S   S S   S  S  S  S  S  S   S  S   S  S   S  S  S    W                 
-----------------------------------------------------|-------------------|
-----------------------------------------------------|-------------------|
-----------------------------------------------------|-------------------|
-----------------------------------------------------|-------------------|
--------------12p-8-10p-7---------------13p-10-12p-8-|-------------------|
--8h-12-8h-12-------------12h-14-12h-14--------------|-------------------|
 
 
              PM PM                PM PM PM       PM    PM     
  E  Q     E  E  E  E  E  E  E     S  S  E  E  E  E  E  E  E   
--------------------------------|-----------------------------|
--------------------------------|-----------------------------|
--------------------------------|-----------------------------|
--------------------------------|-----------------------------|
-----3~----7--------7--5--8--7--|-----------5--8-----------5--|
--------------8--8--------------|--0--0--0--------0--8--0-----|
 
 
  PM                                  PM PM PM       PM    PM     
  E   Q     E  E   E  E  E   E  E     S  S  E  E  E  E  E  E  E   
-----------------------------------|-----------------------------|
-----------------------------------|-----------------------------|
-----------------------------------|-----------------------------|
-----------------------------------|-----------------------------|
------------7--5---------5---------|-----------5--8-----------5--|
--0--10~----------10--8-----10--7--|--0--0--0--------0--8--0-----|
 
 
  PM           PM PM                 PM PM PM       PM    PM     
  E   Q     E  E  E  E  E  E   E     S  S  E  E  E  E  E  E  E   
----------------------------------|-----------------------------|
----------------------------------|-----------------------------|
----------------------------------|-----------------------------|
----------------------------------|-----------------------------|
------------7--------7--5--8--10--|-----------5--8-----------5--|
--0--10~-------8--8---------------|--0--0--0--------0--8--0-----|
 
 
  PM                                PM PM PM       PM    PM     
  E   Q     E  E  E  E  E  E  E     S  S  E  E  E  E  E  E  E   
---------------------------------|-----------------------------|
---------------------------------|-----------------------------|
---------------------------------|-----------------------------|
---------------------------------|-----------------------------|
------------7--7--7--7--5--5--5--|--0--0--0--5--8-----------5--|
--0--10~-------------------------|--0--0--0--------0--8--0-----|
 
 
  PM        PM PM PM    PM PM PM    PM PM PM       PM    PM     
  E   Q     E  E  E  E  E  E  E     S  S  E  E  E  E  E  E  E   
---------------------------------|-----------------------------|
---------------------------------|-----------------------------|
---------------------------------|-----------------------------|
---------------------------------|-----------------------------|
------------0--0--0-----0--0--0--|--0--0--0--5--8-----------5--|
--0--10~----0--0--0-----0--0--0--|--0--0--0--------0--8--0-----|
 
 
  PM                                  PM PM PM       PM    PM     
  E   Q     E  E   E  E  E   E  E     S  S  E  E  E  E  E  E  E   
-----------------------------------|-----------------------------|
-----------------------------------|-----------------------------|
-----------------------------------|-----------------------------|
-----------------------------------|-----------------------------|
------------7--5---------5---------|--0--0--0--5--8-----------5--|
--0--10~----------10--8-----10--7--|--0--0--0--------0--8--0-----|
 
 
  PM        PM PM PM    PM PM PM    PM PM PM       PM    PM     
  E   Q     E  E  E  E  E  E  E     S  S  E  E  E  E  E  E  E   
---------------------------------|-----------------------------|
---------------------------------|-----------------------------|
---------------------------------|-----------------------------|
---------------------------------|-----------------------------|
------------0--0--0-----0--0--0--|--0--0--0--5--8-----------5--|
--0--10~----0--0--0-----0--0--0--|--0--0--0--------0--8--0-----|
 
 
  PM                                     PM PM    PM PM    PM  
  E   Q     E  E   E  E  E   E  E     E  E  E  E  E  E  E  E   
-----------------------------------|--------------------------|
-----------------------------------|--------------------------|
-----------------------------------|--------------------------|
-----------------------------------|--------------------------|
------------7--5---------5---------|--5--------5--------5-----|
--0--10~----------10--8-----10--7--|-----0--0-----0--0-----0--|
 
 
     PM PM    PM PM    PM       PM PM    PM PM    PM  
  E  E  E  E  E  E  E  E     E  E  E  E  E  E  E  E   
--------------------------|--------------------------|
--------------------------|--------------------------|
--------------------------|--------------------------|
--------------------------|--------------------------|
--8--------8--------8-----|--8--------8--------8-----|
-----0--0-----0--0-----0--|-----8--8-----8--8-----8--|
 
 
     PM    PM     PM             PM PM    PM PM    PM  
  E  E  E  E   E  E  E  E     E  E  E  E  E  E  E  E   
---------------------------|--------------------------|
---------------------------|--------------------------|
---------------------------|--------------------------|
--7------------------------|--------------------------|
--------8-----10-----8--7--|--8--------8--------8-----|
-----8-----8------8--------|-----0--0-----0--0-----0--|
 
 
      PM PM     PM PM               PM PM     PM PM     PM  
   E  E  E   E  E  E   E  E      E  E  E   E  E  E   E  E   
-----------------------------|-----------------------------|
-----------------------------|-----------------------------|
-----------------------------|-----------------------------|
--10--------10--------10-----|-----------------------------|
--------------------------3--|--12--------12--------12-----|
------0--0------0--0---------|------8--8------8--8------8--|
 
 
   E  E  E  E  E   E  E  E     Q    H.               Q    H         Q      
----------------------------|--------------------|------------------------|
----------------------------|--------------------|------------------------|
---------------7------7--9--|--------------------|------------------------|
--10--7--8--7-----10--------|--------------------|------------------------|
----------------------------|--8-----------------|--10--------------------|
----------------------------|--8-----------------|--10-------------12\----|
 
 
   E   E   E   E   E   E   E   E      E   E   E   E   E   E   E   E   
----------------------------------|----------------------------------|
----------------------------------|----------------------------------|
----------------------------------|----------------------------------|
--12--12--12--12--12--12--12--12--|--12--12--12--12--12--10--10--10--|
--12--12--12--12--12--12--12--12--|--12--12--12--12--12--10--10--10--|
--12--12--12--12--12--12--12--12--|--12--12--12--12--12--10--10--10--|
 
 
  S S S S S S S S  S  S  S  S  S  S  S  S  
------------------------------------------|
------------------------------------------|
------------------------------------------|
------------------------------------------|
------------------10-10-10-10-12-12-12-12-|
--8-8-8-8-8-8-8-8-------------------------|
 
 
   S  S  S  S  S  S  S  S  S  S  S  S  S  S  S  S    S S E  E  E  E  E  E  E   
--------------------------------------------------|---------------------------|
--------------------------------------------------|---------------------------|
--------------------------------------------------|---------------------------|
--------------------------------------------------|---------------------------|
--------------------------12-12-12-12-14-14-14-14-|--0-0-0--0-----0-----0--0--|
--10-10-10-10-10-10-10-10-------------------------|--0-0-0--0-----0-----0--0--|
 
 
  E  E  E  E  S S E  E  E     S S S S S S S S  S  S  S  S  S  S  S  S  
---------------------------|------------------------------------------|
---------------------------|------------------------------------------|
---------------------------|------------------------------------------|
---------------------------|------------------------------------------|
-----0--0--0--0-0-0--0--0--|------------------10-10-10-10-12-12-12-12-|
-----0--0--0--0-0-0--0--0--|--8-8-8-8-8-8-8-8-------------------------|
 
 
   S  S  S  S  S  S  S  S  S  S  S  S  S  S  S  S  
--------------------------------------------------|
--------------------------------------------------|
--------------------------------------------------|
--------------------------------------------------|
--------------------------12-12-12-12-14-14-14-14-|
--10-10-10-10-10-10-10-10-------------------------|
 
 
   E   E   E   E   E   E   E   E      E   E   E   E   E   E   E   E   
----------------------------------|----------------------------------|
----------------------------------|----------------------------------|
----------------------------------|----------------------------------|
--12--12--12--12--12--12--12--12--|--12--12--12--12--12--10--10--10--|
--12--12--12--12--12--12--12--12--|--12--12--12--12--12--10--10--10--|
--12--12--12--12--12--12--12--12--|--12--12--12--12--12--10--10--10--|
 
 
  S S S S S S S S  S  S  S  S  S  S  S  S  
------------------------------------------|
------------------------------------------|
------------------------------------------|
------------------------------------------|
------------------10-10-10-10-12-12-12-12-|
--8-8-8-8-8-8-8-8-------------------------|
 
 
   S  S  S  S  S  S  S  S  S  S  S  S  S  S  S  S    S S E  E  E  E  E  E  E   
--------------------------------------------------|---------------------------|
--------------------------------------------------|---------------------------|
--------------------------------------------------|---------------------------|
--------------------------------------------------|---------------------------|
--------------------------12-12-12-12-14-14-14-14-|--0-0-0--0-----0-----0--0--|
--10-10-10-10-10-10-10-10-------------------------|--0-0-0--0-----0-----0--0--|
 
 
  E  E  E  E  S S E  E  E     S S E  E  E  E  E  E  E     E  E  E  E   
---------------------------|---------------------------|--------------|
---------------------------|---------------------------|--------------|
---------------------------|---------------------------|--------------|
---------------------------|---------------------------|--------------|
-----0--0--0--0-0-0--0--0--|--0-0-0--0-----0-----0--0--|-----0--0--0--|
-----0--0--0--0-0-0--0--0--|--0-0-0--0-----0-----0--0--|-----0--0--0--|
 
 
                                  PM    PM    PM  
  H.            Q        E  E  E  E  E  E  E  E   
----------------------|--------------------------|
----------------------|--------------------------|
----------------------|--------------------------|
----------------------|--------------------------|
--0-------------------|--0--0--8-----5-----7-----|
--0------------12\----|--0--0-----0-----0-----0--|
 
 
     PM     PM                                            
  E  E   E  E  S  S  E  E  E     E  E  H.                 
------------------------------|---------------------|----|
------------------------------|---------------------|----|
------------------------------|---------------------|----|
------------------------------|---------------------|----|
--8-----10-----7h-8p-7--0--0--|--0--0---------------|----|
-----0------0-----------0--0--|--0--0---------------|----|
 
 
  PM PM PM    PM    PM    PM       PM     PM                
  S  S  E  E  E  E  E  E  E     E  E   E  E  S  S  E  Q     
-----------------------------|-----------------------------|
-----------------------------|-----------------------------|
-----------------------------|-----------------------------|
-----------------------------|-----------------------------|
-----------8-----5-----7-----|--8-----10-----7h-8p-7-------|
--8--8--8-----8-----8-----8--|-----8------8-----------5----|
 
 
  PM PM PM    PM                   PM PM PM      PM                
  S  S  E  E  E  S  S  E  Q        S  S  E   E   E   E   E  E  E   
-------------------------------|----------------------------------|
-------------------------------|----------------------------------|
-------------------------------|----------------------------------|
-------------------------------|----------------------------------|
-----------8-----5h-7p-5--3----|------------10------12--10--8--7--|
--5--5--5-----5----------------|--10-10-10------10----------------|
 
 
  PM PM PM    PM    PM    PM       PM     PM                 
  S  S  E  E  E  E  E  E  E     E  E   E  E  S  S  E   Q     
-----------------------------|------------------------------|
-----------------------------|------------------------------|
-----------------------------|------------------------------|
-----------------------------|------------------------------|
-----------8-----5-----7-----|--8-----10-----7h-8p-7--------|
--0--0--0-----0-----0-----0--|-----0------0-----------10----|
 
 
  PM PM PM    PM    PM    PM       PM     PM               
  S  S  E  E  E  E  E  E  E     E  E   E  E   E  E  E  E   
-----------------------------|----------------------------|
-----------------------------|----------------------------|
-----------------------------|----------------------------|
-----------------------------|----------------------------|
-----------8-----5-----7-----|--8-----10-----10--8--7--5--|
--0--0--0-----0-----0-----0--|-----0------0---------------|
 
 
  PM PM PM    PM    PM    PM       PM     PM                
  S  S  E  E  E  E  E  E  E     E  E   E  E  S  S  E  Q     
-----------------------------|-----------------------------|
-----------------------------|-----------------------------|
-----------------------------|-----------------------------|
-----------------------------|-----------------------------|
-----------8-----5-----7-----|--8-----10-----7h-8p-7-------|
--8--8--8-----8-----8-----8--|-----8------8-----------5----|
 
 
  PM PM PM    PM                   PM PM PM      PM                 
  S  S  E  E  E  S  S  E  Q        S  S  E   E   E  S   S  E  Q     
-------------------------------|-----------------------------------|
-------------------------------|-----------------------------------|
-------------------------------|-----------------------------------|
-------------------------------|-----------------------------------|
-----------8-----5h-7p-5--3----|------------10------8h-10p-8--7----|
--5--5--5-----5----------------|--10-10-10------10-----------------|
 
 
-------------------|-------------------|-------------------|-------------------|
-------------------|-------------------|-------------------|-------------------|
-------------------|-------------------|-------------------|-------------------|
-------------------|-------------------|-------------------|-------------------|
-------------------|-------------------|-------------------|-------------------|
-------------------|-------------------|-------------------|-------------------|
 
 
-------------------|-------------------|-------------------|-------------------|
-------------------|-------------------|-------------------|-------------------|
-------------------|-------------------|-------------------|-------------------|
-------------------|-------------------|-------------------|-------------------|
-------------------|-------------------|-------------------|-------------------|
-------------------|-------------------|-------------------|-------------------|
 
 
   T     T     T     T     T     T     T     T     
   S  S  S  S  S  S  S  S  S  S  S  S  S  S  S  S  
--------------------------------------------------|
--------------------------------------------------|
--------------------------------------------------|
--13p-5-13p-5-13p-5-13p-5-13p-5-13p-5-13p-5-13p-5-|
--------------------------------------------------|
--------------------------------------------------|
 
 
   T     T     T     T     T     T     T     T     
   S  S  S  S  S  S  S  S  S  S  S  S  S  S  S  S  
--------------------------------------------------|
--------------------------------------------------|
--------------------------------------------------|
--13p-8-13p-8-13p-8-13p-8-13p-8-13p-8-13p-8-13p-8-|
--------------------------------------------------|
--------------------------------------------------|
 
 
   T     T     T     T     T     T     T     T     
   S  S  S  S  S  S  S  S  S  S  S  S  S  S  S  S  
--------------------------------------------------|
--------------------------------------------------|
--------------------------------------------------|
--12p-8-12p-8-12p-8-12p-8-12p-8-12p-8-12p-8-12p-8-|
--------------------------------------------------|
--------------------------------------------------|
 
 
   T     T     T     T     T     T     T     T     
   S  S  S  S  S  S  S  S  S  S  S  S  S  S  S  S  
--------------------------------------------------|
--------------------------------------------------|
--------------------------------------------------|
--10p-8-10p-8-10p-8-10p-8-10p-8-10p-8-10p-8-10p-8-|
--------------------------------------------------|
--------------------------------------------------|
 
 
   T     T     T     T     T     T     T     T     
   S  S  S  S  S  S  S  S  S  S  S  S  S  S  S  S  
--------------------------------------------------|
--------------------------------------------------|
--------------------------------------------------|
--13p-5-13p-5-13p-5-13p-5-13p-5-13p-5-13p-5-13p-5-|
--------------------------------------------------|
--------------------------------------------------|
 
 
   T     T     T     T     T     T     T     T     
   S  S  S  S  S  S  S  S  S  S  S  S  S  S  S  S  
--------------------------------------------------|
--------------------------------------------------|
--------------------------------------------------|
--13p-8-13p-8-13p-8-13p-8-13p-8-13p-8-13p-8-13p-8-|
--------------------------------------------------|
--------------------------------------------------|
 
 
   T     T     T     T     T     T     T     T     
   S  S  S  S  S  S  S  S  S  S  S  S  S  S  S  S  
--------------------------------------------------|
--------------------------------------------------|
--------------------------------------------------|
--12p-8-12p-8-12p-8-12p-8-12p-8-12p-8-12p-8-12p-8-|
--------------------------------------------------|
--------------------------------------------------|
 
 
   T     T     T     T     T     T            
   S  S  S  S  S  S  S  S  S  S  S  S  Q      
---------------------------------------------|
---------------------------------------------|
---------------------------------------------|
--10p-8-10p-8-10p-8-10p-8-10p-8-10p-8--------|
---------------------------------------------|
--------------------------------------12\----|
 
 
  PM PM PM PM PM PM PM PM   PM PM PM PM             PM PM PM PM PM  
  S  S  E  S  S  S  S  S  S S  E  S  E     H        E  S  E  S  E   
----------------------------------------|--------------------------|
----------------------------------------|--------------------------|
----------------------------------------|--------------------------|
----------------------------------------|--------------------------|
--0--0--0--0--0--0--0--0----0--0--0--0--|-----------0--0--0--0--0--|
--0--0--0--0--0--0--0--0----0--0--0--0--|-----------0--0--0--0--1--|
 
 
  PM PM PM PM PM PM PM PM   PM PM PM PM  
  S  S  E  S  S  S  S  S  S S  E  S  E   
----------------------------------------|
----------------------------------------|
----------------------------------------|
----------------------------------------|
--0--0--0--0--0--0--0--0----0--0--0--0--|
--0--0--0--0--0--0--0--0----0--0--0--0--|
 
 
  S   S S   S  S  S  S  S  S   S  S   S  S   S  S  S  
-----------------------------------------------------|
-----------------------------------------------------|
-----------------------------------------------------|
-----------------------------------------------------|
--------------12p-8-10p-7---------------13p-10-12p-8-|
--8h-12-8h-12-------------12h-14-12h-14--------------|
 
 
  PM PM PM PM PM PM PM PM   PM PM PM PM             PM PM PM PM PM  
  S  S  E  S  S  S  S  S  S S  E  S  E     H        E  S  E  S  E   
----------------------------------------|--------------------------|
----------------------------------------|--------------------------|
----------------------------------------|--------------------------|
----------------------------------------|--------------------------|
--0--0--0--0--0--0--0--0----0--0--0--0--|-----------0--0--0--0--0--|
--0--0--0--0--0--0--0--0----0--0--0--0--|-----------0--0--0--0--1--|
 
 
  PM PM PM PM PM PM PM PM   PM PM PM PM  
  S  S  E  S  S  S  S  S  S S  E  S  E   
----------------------------------------|
----------------------------------------|
----------------------------------------|
----------------------------------------|
--0--0--0--0--0--0--0--0----0--0--0--0--|
--0--0--0--0--0--0--0--0----0--0--0--0--|
 
 
  S   S S   S  S  S  S  S   Q        Q      
-------------------------------------------|
-------------------------------------------|
-------------------------------------------|
-------------------------------------------|
--------------12p-8-10p-7-<>5b----<>12b----|
--8h-12-8h-12------------------------------|
 
 
  PM PM PM PM PM PM PM PM   PM PM PM PM                     PM PM PM PM PM  
  S  S  E  S  S  S  S  S  S S  E  S  E     W                E  S  E  S  E   
----------------------------------------|----------------------------------|
----------------------------------------|----------------------------------|
----------------------------------------|----------------------------------|
----------------------------------------|----------------------------------|
--0--0--0--0--0--0--0--0----0--0--0--0--|-------------------0--0--0--0--0--|
--0--0--0--0--0--0--0--0----0--0--0--0--|-------------------0--0--0--0--1--|
 
 
  PM PM PM PM PM PM PM PM   PM PM PM PM    
  S  S  E  S  S  S  S  S  S S  E  S  S  S  
------------------------------------------|
------------------------------------------|
------------------------------------------|
------------------------------------------|
--0--0--0--0--0--0--0--0----0--0--0--0----|
--0--0--0--0--0--0--0--0----0--0--0--0----|
 
 
  PM PM PM PM PM PM PM PM   PM    PM                        PM PM PM PM PM  
  S  S  E  S  S  S  S  S  S S  E  S  E     W                E  S  E  S  E   
----------------------------------------|----------------------------------|
----------------------------------------|----------------------------------|
----------------------------------------|----------------------------------|
----------------------------------------|----------------------------------|
--0--0--0--0--0--0--0--0----------------|-------------------0--0--0--0--0--|
--0--0--0--0--0--0--0--0----0--0--0--0--|-------------------0--0--0--0--1--|
 
 
  PM PM PM PM PM PM PM PM   PM PM PM PM  
  S  S  E  S  S  S  S  S  S S  E  S  E   
----------------------------------------|
----------------------------------------|
----------------------------------------|
----------------------------------------|
--0--0--0--0--0--0--0--0----0--0--0--0--|
--0--0--0--0--0--0--0--0----0--0--0--0--|
 
 
  S   S S   S  S  S  S  S  S   S  S   S  S   S  S  S  
-----------------------------------------------------|
-----------------------------------------------------|
-----------------------------------------------------|
-----------------------------------------------------|
--------------12p-8-10p-7---------------13p-10-12p-8-|
--8h-12-8h-12-------------12h-14-12h-14--------------|
 
 
   S   S  S   S  S   S  S   S  S   S  S   S  S   S  S   S    Q    H.            
----------------------------------------------------------|--------------------|
----------------------------------------------------------|--------------------|
----------------------------------------------------------|--------------------|
----------------------------------------------------------|--------------------|
----------------15p-12-13p-10---------------17p-13-15p-12-|--8-----------------|
--12h-15-12h-15---------------14h-17-14h-17---------------|--8-----------------|
 
 
   Q    H         Q         E   E   E   E   E   E   E   E   
------------------------|----------------------------------|
------------------------|----------------------------------|
------------------------|----------------------------------|
------------------------|--12--12--12--12--12--12--12--12--|
--10--------------------|--12--12--12--12--12--12--12--12--|
--10-------------12\----|--12--12--12--12--12--12--12--12--|
 
 
   E   E   E   E   E   E   E   E     S S S S S S S S  S  S  S  S  S  S  S  S  
----------------------------------|------------------------------------------|
----------------------------------|------------------------------------------|
----------------------------------|------------------------------------------|
--12--12--12--12--12--10--10--10--|------------------------------------------|
--12--12--12--12--12--10--10--10--|------------------10-10-10-10-12-12-12-12-|
--12--12--12--12--12--10--10--10--|--8-8-8-8-8-8-8-8-------------------------|
 
 
   S  S  S  S  S  S  S  S  S  S  S  S  S  S  S  S    S S E  E  E  E  E  E  E   
--------------------------------------------------|---------------------------|
--------------------------------------------------|---------------------------|
--------------------------------------------------|---------------------------|
--------------------------------------------------|---------------------------|
--------------------------12-12-12-12-14-14-14-14-|--0-0-0--0-----0-----0--0--|
--10-10-10-10-10-10-10-10-------------------------|--0-0-0--0-----0-----0--0--|
 
 
  E  E  E  E  S S E  E  E     S S S S S S S S  S  S  S  S  S  S  S  S  
---------------------------|------------------------------------------|
---------------------------|------------------------------------------|
---------------------------|------------------------------------------|
---------------------------|------------------------------------------|
-----0--0--0--0-0-0--0--0--|------------------10-10-10-10-12-12-12-12-|
-----0--0--0--0-0-0--0--0--|--8-8-8-8-8-8-8-8-------------------------|
 
 
   S  S  S  S  S  S  S  S  S  S  S  S  S  S  S  S  
--------------------------------------------------|
--------------------------------------------------|
--------------------------------------------------|
--------------------------------------------------|
--------------------------12-12-12-12-14-14-14-14-|
--10-10-10-10-10-10-10-10-------------------------|
 
 
   E   E   E   E   E   E   E   E      E   E   E   E   E   E   E   E   
----------------------------------|----------------------------------|
----------------------------------|----------------------------------|
----------------------------------|----------------------------------|
--12--12--12--12--12--12--12--12--|--12--12--12--12--12--10--10--10--|
--12--12--12--12--12--12--12--12--|--12--12--12--12--12--10--10--10--|
--12--12--12--12--12--12--12--12--|--12--12--12--12--12--10--10--10--|
 
 
  S S S S S S S S  S  S  S  S  S  S  S  S  
------------------------------------------|
------------------------------------------|
------------------------------------------|
------------------------------------------|
------------------10-10-10-10-12-12-12-12-|
--8-8-8-8-8-8-8-8-------------------------|
 
 
   S  S  S  S  S  S  S  S  S  S  S  S  S  S  S  S    S S E  E  E  E  E  E  E   
--------------------------------------------------|---------------------------|
--------------------------------------------------|---------------------------|
--------------------------------------------------|---------------------------|
--------------------------------------------------|---------------------------|
--------------------------12-12-12-12-14-14-14-14-|--0-0-0--0-----0-----0--0--|
--10-10-10-10-10-10-10-10-------------------------|--0-0-0--0-----0-----0--0--|
 
 
  E  E  E  E  S S E  E  E     S S E  E  E  E  E  E  E   
---------------------------|---------------------------|
---------------------------|---------------------------|
---------------------------|---------------------------|
---------------------------|---------------------------|
-----0--0--0--0-0-0--0--0--|--0-0-0--0-----0-----0--0--|
-----0--0--0--0-0-0--0--0--|--0-0-0--0-----0-----0--0--|
 
 
  E  E  E  E  S S E   Q        S S E  Q    Q    E  E   
----------------------------|-------------------------|
----------------------------|-------------------------|
----------------------------|-------------------------|
----------------------------|-------------------------|
-----0--0--0--0-0-0---------|--0-0-0--0----0----0--0--|
-----0--0--0--0-0-0--12\----|--0-0-0--0----0----0--0--|
 
 
  E  E  E  E  S S E  E  E     S S E  Q    Q    E  E   
---------------------------|-------------------------|
---------------------------|-------------------------|
---------------------------|-------------------------|
---------------------------|-------------------------|
--L--0--0--0--0-0-0--0--0--|--0-0-0--0----0----0--0--|
--L--0--0--0--0-0-0--0--0--|--0-0-0--0----0----0--0--|
 
 
  E  E  E  E  S S S S E  E    
----------------------------||
----------------------------||
----------------------------||
----------------------------||
--L--0--0--0--0-0-0---0--0--||
--L--0--0--0--0-0-0---0--0--||
 
 


GTR R
     E  E  E  E   E   E   E   E     E  E  E  E   E   E   E   E   
D||------------------------------|------------------------------|
A||------------------------------|------------------------------|
F||------------------------------|--------------10--10--10--10--|
C||--8--8--8--8--12--12--12--12--|--8--8--8--8---8---8---8---8--|
G||--8--8--8--8---8---8---8---8--|--8--8--8--8---8---8---8---8--|
C||--8--8--8--8---8---8---8---8--|--8--8--8--8---8---8---8---8--|
 
 
  E  E  E  E  E  E  E  E     E  E  E  E  E  E  E  E   
--------------------------|--------------------------|
--------------------------|--------------------------|
--------------------------|--------------------------|
--5--5--5--5--8--8--8--8--|--7--7--7--7--7--3--3--3--|
--5--5--5--5--5--5--5--5--|--5--5--5--5--5--5--5--5--|
--5--5--5--5--5--5--5--5--|--5--5--5--5--5--5--5--5--|
 
 
  E  E  E  E   E   E   E   E     E  E  E  E   E   E   E   E   
------------------------------|------------------------------|
------------------------------|------------------------------|
------------------------------|--------------10--10--10--10--|
--8--8--8--8--12--12--12--12--|--8--8--8--8---8---8---8---8--|
--8--8--8--8---8---8---8---8--|--8--8--8--8---8---8---8---8--|
--8--8--8--8---8---8---8---8--|--8--8--8--8---8---8---8---8--|
 
 
                             |--------3--------|                             
  E  E  E  E  E  E  E  E     H        H        H           W                 
--------------------------|-----------------------------|-------------------|
--------------------------|-----------------------------|-------------------|
--------------------------|-----------------------------|-------------------|
--5--5--5--5--8--8--8--8--|--5--------3--------2--------|--0----------------|
--5--5--5--5--5--5--5--5--|--5--------3--------2--------|--0----------------|
--5--5--5--5--5--5--5--5--|--5--------3--------2--------|--0----------------|
 
 
  W                   W                   W                   W                 
-------------------|-------------------|-------------------|-------------------|
-------------------|-------------------|-------------------|-------------------|
-------------------|-------------------|-------------------|-------------------|
--L----------------|--L----------------|--L----------------|--L----------------|
--L----------------|--L----------------|--L----------------|--L----------------|
--L----------------|--L----------------|--L----------------|--L----------------|
 
 
                      PM PM PM    PM                
  W                   S  S  E  E  E  S  S  E  Q     
-------------------|-------------------------------|
-------------------|-------------------------------|
-------------------|-------------------------------|
--L----------------|-----------7-----3h-5p-3--2----|
--L----------------|-------------------------------|
--L----------------|--5--5--5-----5----------------|
 
 
   PM PM PM     PM                 PM PM PM    PM    PM    PM  
   S  S  E  E   E   E  E  E  E     S  S  E  E  E  E  E  E  E   
--------------------------------|-----------------------------|
--------------------------------|-----------------------------|
--------------------------------|-----------------------------|
------------8------10--8--7--5--|-----------7-----3-----5-----|
--------------------------------|-----------------------------|
--10-10-10-----10---------------|--0--0--0-----0-----0-----0--|
 
 
     PM    PM                   PM PM PM    PM    PM    PM  
  E  E  E  E  S  S  E   Q       S  S  E  E  E  E  E  E  E   
-----------------------------|-----------------------------|
-----------------------------|-----------------------------|
-----------------------------|-----------------------------|
--7-----8-----5h-7p-5--------|-----------7-----3-----5-----|
-----------------------------|-----------------------------|
-----0-----0-----------10----|--0--0--0-----0-----0-----0--|
 
 
     PM    PM                  PM PM PM    PM    PM    PM  
  E  E  E  E  E   E   E  E     S  S  E  E  E  E  E  E  E   
----------------------------|-----------------------------|
----------------------------|-----------------------------|
----------------------------|-----------------------------|
--7-----8-------------------|-----------7-----3-----5-----|
--------------7-------------|-----------------------------|
-----0-----0-----12--10--8--|--8--8--8-----8-----8-----8--|
 
 
     PM    PM                  PM PM PM    PM                
  E  E  E  E  S  S  E  Q       S  S  E  E  E  S  S  E  Q     
----------------------------|-------------------------------|
----------------------------|-------------------------------|
----------------------------|-------------------------------|
--7-----8-----5h-7p-5-------|-----------7-----3h-5p-3--2----|
----------------------------|-------------------------------|
-----8-----8-----------5----|--5--5--5-----5----------------|
 
 
   PM PM PM     PM                  PM PM PM               
   S  S  E  E   E  S  S  E  Q       S  S  E  H.            
---------------------------------|------------------------|
---------------------------------|------------------------|
---------------------------------|------------------------|
------------8------7h-8p-7--5----|------------------------|
---------------------------------|--0--0--0---------------|
--10-10-10-----10----------------|--0--0--0---------------|
 
 
  PM PM PM PM PM PM PM PM   PM PM PM PM    PM PM PM PM PM PM PM   PM PM PM PM  
  S  S  E  S  S  S  S  S  S S  E  S  E     S  S  E  S  S  E  S  S S  E  S  E   
----------------------------------------|-------------------------------------|
----------------------------------------|-------------------------------------|
----------------------------------------|-------------------------------------|
----------------------------------------|-------------------------------------|
--0--0--0--0--0--0--0--0----0--0--0--0--|--0--0--0--0--0--0--0----0--0--0--0--|
--0--0--0--0--0--0--0--0----0--0--0--0--|--0--0--0--0--0--0--0----0--0--0--0--|
 
 
  S  S S  S S  S S  S S   S S   S  S  S S  S  
---------------------------------------------|
---------------------------------------------|
---------------------------------------------|
---------------------------------------------|
------------8p-5-7p-3-------------10p-7-8p-5-|
--5h-8-5h-8-----------7h-10-7h-10------------|
 
 
  PM PM PM PM PM PM PM   PM PM PM PM    PM PM PM PM PM PM PM PM   PM PM PM PM  
  S  S  E  S  S  E  S  S S  E  S  E     S  S  E  S  S  S  S  S  S S  E  S  E   
-------------------------------------|----------------------------------------|
-------------------------------------|----------------------------------------|
-------------------------------------|----------------------------------------|
-------------------------------------|----------------------------------------|
--0--0--0--0--0--0--0----0--0--0--0--|--0--0--0--0--0--0--0--0----0--0--0--0--|
--0--0--0--0--0--0--0----0--0--0--0--|--0--0--0--0--0--0--0--0----0--0--0--0--|
 
 
  PM PM PM PM PM PM PM   PM PM PM PM  
  S  S  E  S  S  E  S  S S  E  S  E   
-------------------------------------|
-------------------------------------|
-------------------------------------|
-------------------------------------|
--0--0--0--0--0--0--0----0--0--0--0--|
--0--0--0--0--0--0--0----0--0--0--0--|
 
 
                                                PM PM PM       PM    PM     
  S  S S  S S  S S  S S   S S   S  S  S S  S    S  S  E  E  E  E  E  E  E   
---------------------------------------------|-----------------------------|
---------------------------------------------|-----------------------------|
---------------------------------------------|-----------------------------|
---------------------------------------------|--------------7--------------|
------------8p-5-7p-3-------------10p-7-8p-5-|-----------8--------5-----8--|
--5h-8-5h-8-----------7h-10-7h-10------------|--0--0--0--------0-----0-----|
 
 
  PM           PM PM                  PM PM PM       PM    PM     
  E  Q      E  E  E   E  E  E   E     S  S  E  E  E  E  E  E  E   
-----------------------------------|-----------------------------|
-----------------------------------|-----------------------------|
-----------------------------------|-----------------------------|
----------------------------7------|--------------7--------------|
-----7~----10--------10--8-----10--|-----------8--------5-----8--|
--0------------8--8----------------|--0--0--0--------0-----0-----|
 
 
  PM                                PM PM PM       PM    PM     
  E  Q      E  E  E  E  E  E  E     S  S  E  E  E  E  E  E  E   
---------------------------------|-----------------------------|
---------------------------------|-----------------------------|
---------------------------------|-----------------------------|
---------------------------------|--------------7--------------|
-----7~----10--8--7--5--8--7--3--|-----------8--------5-----8--|
--0------------------------------|--0--0--0--------0-----0-----|
 
 
  PM           PM PM                 PM PM PM       PM    PM     
  E  Q      E  E  E   E  E  E  E     S  S  E  E  E  E  E  E  E   
----------------------------------|-----------------------------|
----------------------------------|-----------------------------|
----------------------------------|-----------------------------|
----------------------------7--8--|--------------7--------------|
-----7~----10--------10--8--------|-----------8--------5-----8--|
--0------------8--8---------------|--0--0--0--------0-----0-----|
 
 
  PM                                   PM PM PM       PM    PM     
  E  Q      E   E   E   E  E  E  E     S  S  E  E  E  E  E  E  E   
------------------------------------|-----------------------------|
------------------------------------|-----------------------------|
------------------------------------|-----------------------------|
------------------------------------|--------------7--------------|
-----7~----10--10--10--10--8--8--8--|--0--0--0--8--------5-----8--|
--0---------------------------------|--0--0--0--------0-----0-----|
 
 
  PM       PM PM PM    PM PM PM    PM PM PM       PM    PM     
  E  Q     E  E  E  E  E  E  E     S  S  E  E  E  E  E  E  E   
--------------------------------|-----------------------------|
--------------------------------|-----------------------------|
--------------------------------|-----------------------------|
--------------------------------|--------------7--------------|
-----7~----0--0--0-----0--0--0--|--0--0--0--8--------5-----8--|
--0--------0--0--0-----0--0--0--|--0--0--0--------0-----0-----|
 
 
  PM                                PM PM PM       PM    PM     
  E  Q      E  E  E  E  E  E  E     S  S  E  E  E  E  E  E  E   
---------------------------------|-----------------------------|
---------------------------------|-----------------------------|
---------------------------------|-----------------------------|
---------------------------------|--------------7--------------|
-----7~----10--8--7--5--8--7--3--|--0--0--0--8--------5-----8--|
--0------------------------------|--0--0--0--------0-----0-----|
 
 
  PM       PM PM PM    PM PM PM    PM PM PM       PM    PM     
  E  Q     E  E  E  E  E  E  E     S  S  E  E  E  E  E  E  E   
--------------------------------|-----------------------------|
--------------------------------|-----------------------------|
--------------------------------|-----------------------------|
--------------------------------|--------------7--------------|
-----7~----0--0--0-----0--0--0--|--0--0--0--8--------5-----8--|
--0--------0--0--0-----0--0--0--|--0--0--0--------0-----0-----|
 
 
  PM                                   PM PM    PM PM    PM  
  E  Q      E  E  E  E  E  E  E     E  E  E  E  E  E  E  E   
---------------------------------|--------------------------|
---------------------------------|--------------------------|
---------------------------------|--------------------------|
---------------------------------|--------------------------|
-----7~----10--8--7--5--8--7--3--|--5--------5--------5-----|
--0------------------------------|-----0--0-----0--0-----0--|
 
 
     PM PM    PM PM    PM       PM PM    PM PM    PM  
  E  E  E  E  E  E  E  E     E  E  E  E  E  E  E  E   
--------------------------|--------------------------|
--------------------------|--------------------------|
--------------------------|--------------------------|
--------------------------|--------------------------|
--8--------8--------8-----|--8--------8--------8-----|
-----0--0-----0--0-----0--|-----8--8-----8--8-----8--|
 
 
     PM    PM     PM             PM PM    PM PM    PM  
  E  E  E  E   E  E  E  E     E  E  E  E  E  E  E  E   
---------------------------|--------------------------|
---------------------------|--------------------------|
---------------------------|--------------------------|
--7------------------------|--------------------------|
--------8-----10-----8--7--|--5--------5--------5-----|
-----8-----8------8--------|-----0--0-----0--0-----0--|
 
 
     PM PM    PM PM             PM PM    PM PM    PM  
  E  E  E  E  E  E  E  E     E  E  E  E  E  E  E  E   
--------------------------|--------------------------|
--------------------------|--------------------------|
--------------------------|--------------------------|
--7--------7--------7-----|--------------------------|
-----------------------0--|--8--------8--------8-----|
-----0--0-----0--0--------|-----8--8-----8--8-----8--|
 
 
   E  E   E  E  E   E  E   E     S S S S S S S S  S  S  S  S  S  S  S  S  
------------------------------|------------------------------------------|
------------------------------|------------------------------------------|
------------------------------|------------------------------------------|
----------------8------8--10--|------------------------------------------|
--12--8--10--8-----12---------|------------------10-10-10-10-12-12-12-12-|
------------------------------|--8-8-8-8-8-8-8-8-------------------------|
 
 
   S  S  S  S  S  S  S  S  S  S  S  S  S  S  S  S    E  E    E  Q    E  E  E   
--------------------------------------------------|---------------------------|
--------------------------------------------------|---------------------------|
--------------------------------------------------|--2-------5--3----2--0--2--|
--------------------------------------------------|--3--3--5g7--5----3--2--3--|
--------------------------12-12-12-12-14-14-14-14-|-----5---------------------|
--10-10-10-10-10-10-10-10-------------------------|---------------------------|
 
 
  E  E  E  E  E  E  E  E     S S S S S S S S  S  S  S  S  S  S  S  S  
--------------------------|------------------------------------------|
--------------------------|------------------------------------------|
--L-----------------------|------------------------------------------|
--L--2--0--2--3--2--0-----|------------------------------------------|
-----3--1--3--5--3--1--3--|------------------10-10-10-10-12-12-12-12-|
-----------------------7--|--8-8-8-8-8-8-8-8-------------------------|
 
 
   S  S  S  S  S  S  S  S  S  S  S  S  S  S  S  S    S S E  E  E  E  E  E  E   
--------------------------------------------------|---------------------------|
--------------------------------------------------|---------------------------|
--------------------------------------------------|---------------------------|
--------------------------------------------------|---------------------------|
--------------------------12-12-12-12-14-14-14-14-|--0-0-0--0-----0-----0--0--|
--10-10-10-10-10-10-10-10-------------------------|--0-0-0--0-----0-----0--0--|
 
 
  E  E  E  E  S S E  E  E      S  S  S  S  S  S  S  S  S  S  S  S  S  S  S  S  
---------------------------|--------------------------------------------------|
---------------------------|--------------------------------------------------|
---------------------------|--------------------------------------------------|
---------------------------|--------------------------10-10-10-10-12-12-12-12-|
-----0--0--0--0-0-0--0--0--|--------------------------------------------------|
-----0--0--0--0-0-0--0--0--|--12-12-12-12-12-12-12-12-------------------------|
 
 
   S  S  S  S  S  S  S  S  S  S  S  S  S  S  S  S    E  E  E  Q    E  E  E   
--------------------------------------------------|-------------------------|
--------------------------------------------------|-------------------------|
--------------------------------------------------|--2-----5--3----2--0--2--|
--------------------------10-10-10-10-12-12-12-12-|--3--3--7--5----3--2--3--|
--------------------------------------------------|-----5-------------------|
--14-14-14-14-14-14-14-14-------------------------|-------------------------|
 
 
  E  E  E  E  E  E  E  E      S  S  S  S  S  S  S  S  S  S  S  S  S  S  S  S  
--------------------------|--------------------------------------------------|
--------------------------|--------------------------------------------------|
--L--2--2-----------------|--------------------------------------------------|
--L--3--3--3--5--5--5--2--|--------------------------10-10-10-10-12-12-12-12-|
-----------5--7--7--7--3--|--------------------------------------------------|
--------------------------|--12-12-12-12-12-12-12-12-------------------------|
 
 
   S  S  S  S  S  S  S  S  S  S  S  S  S  S  S  S    S S E  E  E  E  E  E  E   
--------------------------------------------------|---------------------------|
--------------------------------------------------|---------------------------|
--------------------------------------------------|---------------------------|
--------------------------10-10-10-10-12-12-12-12-|---------------------------|
--------------------------------------------------|--0-0-0--0-----0-----0--0--|
--14-14-14-14-14-14-14-14-------------------------|--0-0-0--0-----0-----0--0--|
 
 
  E  E  E  E  S S E  E  E     S S E  E  E  E  E  E  E     E  E  E  E   
---------------------------|---------------------------|--------------|
---------------------------|---------------------------|--------------|
---------------------------|---------------------------|--------------|
---------------------------|---------------------------|--------------|
-----0--0--0--0-0-0--0--0--|--0-0-0--0-----0-----0--0--|-----0--0--0--|
-----0--0--0--0-0-0--0--0--|--0-0-0--0-----0-----0--0--|-----0--0--0--|
 
 
  H.            Q        E  E  H.              H.           E  E   
----------------------|---------------------|---------------------|
----------------------|---------------------|---------------------|
----------------------|---------------------|---------------------|
----------------------|---------------------|---------------------|
--0-------------------|--0--0---------------|---------------0--0--|
--0------------15\----|--0--0---------------|---------------0--0--|
 
 
           PM    PM    PM       PM     PM               
  E  E  E  E  E  E  E  E     E  E   E  E   E  E  E  E   
--------------------------|----------------------------|
--------------------------|----------------------------|
--------------------------|----------------------------|
--------------------------|----------------------------|
--0--0--8-----5-----7-----|--8-----10-----10--8--7--3--|
--0--0-----0-----0-----0--|-----0------0---------------|
 
 
  PM PM PM    PM    PM    PM       PM    PM                
  S  S  E  E  E  E  E  E  E     E  E  E  E  S  S  E  Q     
-----------------------------|----------------------------|
-----------------------------|----------------------------|
-----------------------------|----------------------------|
-----------7-----3-----5-----|--7-----8-----5h-7p-5-------|
-----------------------------|----------------------------|
--8--8--8-----8-----8-----8--|-----8-----8-----------5----|
 
 
  PM PM PM    PM                   PM PM PM     PM               
  S  S  E  E  E  S  S  E  Q        S  S  E  E   E   E  E  E  E   
-------------------------------|--------------------------------|
-------------------------------|--------------------------------|
-------------------------------|--------------------------------|
-----------7-----3h-5p-3--2----|------------8------10--8--7--5--|
-------------------------------|--------------------------------|
--5--5--5-----5----------------|--10-10-10-----10---------------|
 
 
  PM PM PM    PM    PM    PM       PM    PM                 
  S  S  E  E  E  E  E  E  E     E  E  E  E  S  S  E   Q     
-----------------------------|-----------------------------|
-----------------------------|-----------------------------|
-----------------------------|-----------------------------|
-----------7-----3-----5-----|--7-----8-----5h-7p-5--------|
-----------------------------|-----------------------------|
--0--0--0-----0-----0-----0--|-----0-----0-----------10----|
 
 
  PM PM PM    PM    PM    PM       PM    PM                
  S  S  E  E  E  E  E  E  E     E  E  E  E  E   E   E  E   
-----------------------------|----------------------------|
-----------------------------|----------------------------|
-----------------------------|----------------------------|
-----------7-----3-----5-----|--7-----8-------------------|
-----------------------------|--------------7-------------|
--0--0--0-----0-----0-----0--|-----0-----0-----12--10--8--|
 
 
  PM PM PM    PM    PM    PM       PM    PM                
  S  S  E  E  E  E  E  E  E     E  E  E  E  S  S  E  Q     
-----------------------------|----------------------------|
-----------------------------|----------------------------|
-----------------------------|----------------------------|
-----------7-----3-----5-----|--7-----8-----5h-7p-5-------|
-----------------------------|----------------------------|
--8--8--8-----8-----8-----8--|-----8-----8-----------5----|
 
 
  PM PM PM    PM                   PM PM PM     PM                
  S  S  E  E  E  S  S  E  Q        S  S  E  E   E  S  S  E  Q     
-------------------------------|---------------------------------|
-------------------------------|---------------------------------|
-------------------------------|---------------------------------|
-----------7-----3h-5p-3--2----|------------8------7h-8p-7--5----|
-------------------------------|---------------------------------|
--5--5--5-----5----------------|--10-10-10-----10----------------|
 
 
   T     T     T     T     T     T     T     T     
   S  S  S  S  S  S  S  S  S  S  S  S  S  S  S  S  
--------------------------------------------------|
--------------------------------------------------|
--12p-5-12p-5-12p-5-12p-5-12p-5-12p-5-12p-5-12p-5-|
--------------------------------------------------|
--------------------------------------------------|
--------------------------------------------------|
 
 
   T     T     T     T     T     T     T     T     
   S  S  S  S  S  S  S  S  S  S  S  S  S  S  S  S  
--------------------------------------------------|
--------------------------------------------------|
--12p-8-12p-8-12p-8-12p-8-12p-8-12p-8-12p-8-12p-8-|
--------------------------------------------------|
--------------------------------------------------|
--------------------------------------------------|
 
 
   T     T     T     T     T     T     T     T     
   S  S  S  S  S  S  S  S  S  S  S  S  S  S  S  S  
--------------------------------------------------|
--------------------------------------------------|
--12p-3-12p-3-12p-3-12p-3-12p-3-12p-3-12p-3-12p-3-|
--------------------------------------------------|
--------------------------------------------------|
--------------------------------------------------|
 
 
   T     T     T     T     T     T     T     T     
   S  S  S  S  S  S  S  S  S  S  S  S  S  S  S  S  
--------------------------------------------------|
--------------------------------------------------|
--10p-3-10p-3-10p-3-10p-3-10p-3-10p-3-10p-3-10p-3-|
--------------------------------------------------|
--------------------------------------------------|
--------------------------------------------------|
 
 
   T     T     T     T     T     T     T     T     
   S  S  S  S  S  S  S  S  S  S  S  S  S  S  S  S  
--------------------------------------------------|
--------------------------------------------------|
--12p-5-12p-5-12p-5-12p-5-12p-5-12p-5-12p-5-12p-5-|
--------------------------------------------------|
--------------------------------------------------|
--------------------------------------------------|
 
 
   T     T     T     T     T     T     T     T     
   S  S  S  S  S  S  S  S  S  S  S  S  S  S  S  S  
--------------------------------------------------|
--------------------------------------------------|
--12p-8-12p-8-12p-8-12p-8-12p-8-12p-8-12p-8-12p-8-|
--------------------------------------------------|
--------------------------------------------------|
--------------------------------------------------|
 
 
   T     T     T     T     T     T     T     T     
   S  S  S  S  S  S  S  S  S  S  S  S  S  S  S  S  
--------------------------------------------------|
--------------------------------------------------|
--12p-3-12p-3-12p-3-12p-3-12p-3-12p-3-12p-3-12p-3-|
--------------------------------------------------|
--------------------------------------------------|
--------------------------------------------------|
 
 
   T     T     T     T     T     T     T     T     
   S  S  S  S  S  S  S  S  S  S  S  S  S  S  S  S  
--------------------------------------------------|
--------------------------------------------------|
--10p-3-10p-3-10p-3-10p-3-10p-3-10p-3-10p-3-10p-3-|
--------------------------------------------------|
--------------------------------------------------|
--------------------------------------------------|
 
 
   T     T     T     T     T     T     T     T     
   S  S  S  S  S  S  S  S  S  S  S  S  S  S  S  S  
--------------------------------------------------|
--------------------------------------------------|
--12p-5-12p-5-12p-5-12p-5-12p-5-12p-5-12p-5-12p-5-|
--------------------------------------------------|
--------------------------------------------------|
--------------------------------------------------|
 
 
   T     T     T     T     T     T     T     T     
   S  S  S  S  S  S  S  S  S  S  S  S  S  S  S  S  
--------------------------------------------------|
--------------------------------------------------|
--12p-8-12p-8-12p-8-12p-8-12p-8-12p-8-12p-8-12p-8-|
--------------------------------------------------|
--------------------------------------------------|
--------------------------------------------------|
 
 
   T     T     T     T     T     T     T     T     
   S  S  S  S  S  S  S  S  S  S  S  S  S  S  S  S  
--------------------------------------------------|
--------------------------------------------------|
--12p-3-12p-3-12p-3-12p-3-12p-3-12p-3-12p-3-12p-3-|
--------------------------------------------------|
--------------------------------------------------|
--------------------------------------------------|
 
 
   T     T     T     T     T     T     T     T     
   S  S  S  S  S  S  S  S  S  S  S  S  S  S  S  S  
--------------------------------------------------|
--------------------------------------------------|
--10p-3-10p-3-10p-3-10p-3-10p-3-10p-3-10p-3-10p-3-|
--------------------------------------------------|
--------------------------------------------------|
--------------------------------------------------|
 
 
   T     T     T     T     T     T     T     T     
   S  S  S  S  S  S  S  S  S  S  S  S  S  S  S  S  
--------------------------------------------------|
--------------------------------------------------|
--12p-5-12p-5-12p-5-12p-5-12p-5-12p-5-12p-5-12p-5-|
--------------------------------------------------|
--------------------------------------------------|
--------------------------------------------------|
 
 
   T     T     T     T     T     T     T     T     
   S  S  S  S  S  S  S  S  S  S  S  S  S  S  S  S  
--------------------------------------------------|
--------------------------------------------------|
--12p-8-12p-8-12p-8-12p-8-12p-8-12p-8-12p-8-12p-8-|
--------------------------------------------------|
--------------------------------------------------|
--------------------------------------------------|
 
 
   T     T     T     T     T     T     T     T     
   S  S  S  S  S  S  S  S  S  S  S  S  S  S  S  S  
--------------------------------------------------|
--------------------------------------------------|
--12p-3-12p-3-12p-3-12p-3-12p-3-12p-3-12p-3-12p-3-|
--------------------------------------------------|
--------------------------------------------------|
--------------------------------------------------|
 
 
   T     T     T     T     T     T            
   S  S  S  S  S  S  S  S  S  S  S  S  Q      
---------------------------------------------|
---------------------------------------------|
--10p-3-10p-3-10p-3-10p-3-10p-3-10p-3--------|
---------------------------------------------|
---------------------------------------------|
--------------------------------------15\----|
 
 
  PM PM PM PM PM PM PM PM   PM PM PM PM             PM PM PM PM PM  
  S  S  E  S  S  S  S  S  S S  E  S  E     H        E  S  E  S  E   
----------------------------------------|--------------------------|
----------------------------------------|--------------------------|
----------------------------------------|--------------------------|
----------------------------------------|--------------------------|
--0--0--0--0--0--0--0--0----0--0--0--0--|-----------0--0--0--0--0--|
--0--0--0--0--0--0--0--0----0--0--0--0--|-----------0--0--0--0--1--|
 
 
  PM PM PM PM PM PM PM PM   PM PM PM PM  
  S  S  E  S  S  S  S  S  S S  E  S  E   
----------------------------------------|
----------------------------------------|
----------------------------------------|
----------------------------------------|
--0--0--0--0--0--0--0--0----0--0--0--0--|
--0--0--0--0--0--0--0--0----0--0--0--0--|
 
 
  S  S S  S S  S S  S S   S S   S  S  S S  S  
---------------------------------------------|
---------------------------------------------|
---------------------------------------------|
---------------------------------------------|
------------8p-5-7p-3-------------10p-7-8p-5-|
--5h-8-5h-8-----------7h-10-7h-10------------|
 
 
  PM PM PM PM PM PM PM PM   PM PM PM PM    PM PM PM PM PM PM PM PM PM PM  
  S  S  E  S  S  S  S  S  S S  E  S  E     E  S  E  S  E  E  S  E  S  E   
----------------------------------------|--------------------------------|
----------------------------------------|--------------------------------|
----------------------------------------|--------------------------------|
----------------------------------------|--------------------------------|
--0--0--0--0--0--0--0--0----0--0--0--0--|-----------------0--0--0--0--0--|
--0--0--0--0--0--0--0--0----0--0--0--0--|--0--0--0--0--0--0--0--0--0--1--|
 
 
  PM PM PM PM PM PM PM PM   PM PM PM PM  
  S  S  E  S  S  S  S  S  S S  E  S  E   
----------------------------------------|
----------------------------------------|
----------------------------------------|
----------------------------------------|
--0--0--0--0--0--0--0--0----0--0--0--0--|
--0--0--0--0--0--0--0--0----0--0--0--0--|
 
 
  S  S S  S S  S S  S S   S S   S  S  S S  S  
---------------------------------------------|
---------------------------------------------|
---------------------------------------------|
---------------------------------------------|
------------8p-5-7p-3-------------10p-7-8p-5-|
--5h-8-5h-8-----------7h-10-7h-10------------|
 
 
  PM PM PM PM PM PM PM PM   PM PM PM PM                     PM PM PM PM PM  
  S  S  E  S  S  S  S  S  S S  E  S  E     W                E  S  E  S  E   
----------------------------------------|----------------------------------|
----------------------------------------|----------------------------------|
----------------------------------------|----------------------------------|
----------------------------------------|----------------------------------|
--0--0--0--0--0--0--0--0----0--0--0--0--|-------------------0--0--0--0--0--|
--0--0--0--0--0--0--0--0----0--0--0--0--|-------------------0--0--0--0--1--|
 
 
  PM PM PM PM PM PM PM PM   PM PM PM PM    
  S  S  E  S  S  S  S  S  S S  E  S  S  S  
------------------------------------------|
------------------------------------------|
------------------------------------------|
------------------------------------------|
--0--0--0--0--0--0--0--0----0--0--0--0----|
--0--0--0--0--0--0--0--0----0--0--0--0----|
 
 
  PM PM PM PM PM PM PM PM   PM    PM                        PM PM PM PM PM  
  S  S  E  S  S  S  S  S  S S  E  S  E     W                E  S  E  S  E   
----------------------------------------|----------------------------------|
----------------------------------------|----------------------------------|
----------------------------------------|----------------------------------|
----------------------------------------|----------------------------------|
--0--0--0--0--0--0--0--0----------------|-------------------0--0--0--0--0--|
--0--0--0--0--0--0--0--0----0--0--0--0--|-------------------0--0--0--0--1--|
 
 
  PM PM PM PM PM PM PM PM   PM PM PM PM  
  S  S  E  S  S  S  S  S  S S  E  S  E   
----------------------------------------|
----------------------------------------|
----------------------------------------|
----------------------------------------|
--0--0--0--0--0--0--0--0----0--0--0--0--|
--0--0--0--0--0--0--0--0----0--0--0--0--|
 
 
  S  S S  S S  S S  S S   S S   S  S  S S  S  
---------------------------------------------|
---------------------------------------------|
---------------------------------------------|
---------------------------------------------|
------------8p-5-7p-3-------------10p-7-8p-5-|
--5h-8-5h-8-----------7h-10-7h-10------------|
 
 
  S   S S   S  S  S  S  S  S   S  S   S  S   S  S  S  
-----------------------------------------------------|
-----------------------------------------------------|
-----------------------------------------------------|
-----------------------------------------------------|
--------------12p-8-10p-7---------------13p-10-12p-8-|
--8h-12-8h-12-------------10h-14-10h-14--------------|
 
 
  S S S S S S S S  S  S  S  S  S  S  S  S  
------------------------------------------|
------------------------------------------|
------------------------------------------|
------------------------------------------|
------------------10-10-10-10-12-12-12-12-|
--8-8-8-8-8-8-8-8-------------------------|
 
 
   S  S  S  S  S  S  S  S  S  S  S  S  S  S  S  S    E  E    E  Q    E  E  E   
--------------------------------------------------|---------------------------|
--------------------------------------------------|---------------------------|
--------------------------------------------------|--2-------5--3----2--0--2--|
--------------------------------------------------|--3--3--5g7--5----3--2--3--|
--------------------------12-12-12-12-14-14-14-14-|-----5---------------------|
--10-10-10-10-10-10-10-10-------------------------|---------------------------|
 
 
  E  E  E  E  E  E  E  E     S S S S S S S S  S  S  S  S  S  S  S  S  
--------------------------|------------------------------------------|
--------------------------|------------------------------------------|
--L-----------------------|------------------------------------------|
--L--2--0--2--3--2--0-----|------------------------------------------|
-----3--1--3--5--3--1--3--|------------------10-10-10-10-12-12-12-12-|
-----------------------7--|--8-8-8-8-8-8-8-8-------------------------|
 
 
   S  S  S  S  S  S  S  S  S  S  S  S  S  S  S  S    S S E  E  E  E  E  E  E   
--------------------------------------------------|---------------------------|
--------------------------------------------------|---------------------------|
--------------------------------------------------|---------------------------|
--------------------------------------------------|---------------------------|
--------------------------12-12-12-12-14-14-14-14-|--0-0-0--0-----0-----0--0--|
--10-10-10-10-10-10-10-10-------------------------|--0-0-0--0-----0-----0--0--|
 
 
  E  E  E  E  S S E  E  E      S  S  S  S  S  S  S  S  S  S  S  S  S  S  S  S  
---------------------------|--------------------------------------------------|
---------------------------|--------------------------------------------------|
---------------------------|--------------------------------------------------|
---------------------------|--------------------------10-10-10-10-12-12-12-12-|
-----0--0--0--0-0-0--0--0--|--------------------------------------------------|
-----0--0--0--0-0-0--0--0--|--12-12-12-12-12-12-12-12-------------------------|
 
 
   S  S  S  S  S  S  S  S  S  S  S  S  S  S  S  S    E  E  E  Q    E  E  E   
--------------------------------------------------|-------------------------|
--------------------------------------------------|-------------------------|
--------------------------------------------------|--2-----5--3----2--0--2--|
--------------------------10-10-10-10-12-12-12-12-|--3--3--7--5----3--2--3--|
--------------------------------------------------|-----5-------------------|
--14-14-14-14-14-14-14-14-------------------------|-------------------------|
 
 
  E  E  E  E  E  E  E  E      S  S  S  S  S  S  S  S  S  S  S  S  S  S  S  S  
--------------------------|--------------------------------------------------|
--------------------------|--------------------------------------------------|
--L--2--2-----------------|--------------------------------------------------|
--L--3--3--3--5--5--5--2--|--------------------------10-10-10-10-12-12-12-12-|
-----------5--7--7--7--3--|--------------------------------------------------|
--------------------------|--12-12-12-12-12-12-12-12-------------------------|
 
 
   S  S  S  S  S  S  S  S  S  S  S  S  S  S  S  S    S S E  E  E  E  E  E  E   
--------------------------------------------------|---------------------------|
--------------------------------------------------|---------------------------|
--------------------------------------------------|---------------------------|
--------------------------10-10-10-10-12-12-12-12-|---------------------------|
--------------------------------------------------|--0-0-0--0-----0-----0--0--|
--14-14-14-14-14-14-14-14-------------------------|--0-0-0--0-----0-----0--0--|
 
 
  E  E  E  E  S S E  E  E     S S E  E  E  E  E  E  E   
---------------------------|---------------------------|
---------------------------|---------------------------|
---------------------------|---------------------------|
---------------------------|---------------------------|
-----0--0--0--0-0-0--0--0--|--0-0-0--0-----0-----0--0--|
-----0--0--0--0-0-0--0--0--|--0-0-0--0-----0-----0--0--|
 
 
  E  E  E  E  S S E   Q        S S E  Q    Q    E  E   
----------------------------|-------------------------|
----------------------------|-------------------------|
----------------------------|-------------------------|
----------------------------|-------------------------|
-----0--0--0--0-0-0---------|--0-0-0--0----0----0--0--|
-----0--0--0--0-0-0--15\----|--0-0-0--0----0----0--0--|
 
 
  E  E  E  E  S S E  E  E     S S E  Q    Q    E  E   
---------------------------|-------------------------|
---------------------------|-------------------------|
---------------------------|-------------------------|
---------------------------|-------------------------|
--L--0--0--0--0-0-0--0--0--|--0-0-0--0----0----0--0--|
--L--0--0--0--0-0-0--0--0--|--0-0-0--0----0----0--0--|
 
 
  E  E  E  E  S S S S E  E    
----------------------------||
----------------------------||
----------------------------||
----------------------------||
--L--0--0--0--0-0-0---0--0--||
--L--0--0--0--0-0-0---0--0--||
 
 
 
Duration Legend
---------------
W - whole
H - half
Q - quarter
E - 8th
S - 16th
T - 32nd
X - 64th
. - note dotted
|-n-|  - n-tuplets
 
 
Tablature Legend
----------------
L - tied note
x - dead note
g - grace note
(n) - ghost note
> - accentuded note
NH - natural harmonic
AH - artificial harmonic
TH - tapped harmonic
SH - semi harmonic
PH - pitch harmonic
h - hammer on
p - pull off
b - bend
br - bendRelease
pb - preBend
pbr - preBendRelease
brb - bendReleaseBend
\n/ - tremolo bar dip
\n - tremolo bar dive
-/n - tremolo bar Release up
/n\ - tremolo bar inverted dip
/n - tremolo bar return
-\n - tremolo bar Release down
S - shift slide
s - legato slide
/ -  slide into from below or out of upwards
\ -  slide into from above or out of downwards
~ - vibrato
W - wide vibrato
tr - tril'
TP - tremolo picking
T - tapping
S - slap
P - pop
< - fade in
^ - brush up
v - brush down
comments
We did not receive enough feedback on this tab! Please rate:
print report bad tab
1 2 3 4 5
I want to post or [tab]
guest
You may want to rate the tab now too:
select rating
Please do not post tabs as comments. Select "correction" instead!