Oops, an error
Loading. Please wait.

Streets In The Sky Tab

2,588 views 3 this week
no commentswrite comment
1 2 3 4 5
excellent!
x 2
add to favorites launch autoscroll
font size
0
reset
Autoscroll
+/-
esc
set tempo
stop
Contributor
Difficulty
novice
WARNING: You are trying to view
                                    content from Ultimate-Guitar.com
                                    in an unauthorized application,
                                    which is prohibited.

                                    Please use an official Ultimate
                                    Guitar Tabs application for iPhone,
                                    iPad or Android to access legitimate
                                    chords, guitar, bass, and drum tabs
                                    from Ultimate-Guitar.com database.

                                    Type "ultimate guitar tabs" in Apple
                                    App Store's or Android Market's
                                    search to find the application.
The Enemy - "Streets In The Sky"
Released 21/05/2012 on Cooking Vinyl Records
All music and lyrics Copyright The Enemy 2012

Tabbed By Dan Stobbart (DStobbs) and Scott Eveleigh

Tracklisting -
1. Gimme The Sign
2. Bigger Cages, Longer Chains,
3. Saturday
4. 1-2-3-4
5. Like A Dancer
6. Come Into My World
7. This Is Real
8. 2 Kids
9. Turn It On
10. It's A Race
11. Get Up And Dance
12. Make A Man

----------------------------------------------------------------------------
1. Gimme The Sign
The song (and the whole album in fact) is recorded in C# standard tuning (whole guitar
tuned 3 half steps down from E standard). However, it's hardly worth the effort tuning
down when you can play most of the album in standard regardless. On this song the intro 
does clearly require the lower tuning, but an approximate equivalent is given for standard
tuning. (If you're in C# tuning, the intro is just 5 and 0 on the bottom string back and forth).

Chords -
G#5   - 466xxx
F#5   - 244XXX
Db5   - X466XX
B5    - X244XX
F#5   - 244XXX
A#5   - 688XXX
C5    - X355XX
Eb5   - x688xx
F#/A# - x14xxx

1. Intro
e|----------------------------------------|
B|----------------------------------------|
G|-11-11-11-------------------------------|
D|-11-11-11----11-11-11-11-11-11-11-11-11-|
A|--9--9--9----11-11-11-11-11-11-11-11-11-|
E|--9--9--9--9--9--9--9--9--9--9--9--9--9-| x4

2. Verse
e|----------------------|
B|----------------------|
G|-11-11--11------------|
D|-11-11--11---11-------|
A|--9--9---9---11-------|
E|--9--9---9-9--9-------|
                  vocals    x 4

2. Pre-Chorus
       G#5          F#5
It's a lie, which exists, only in his...

3. Chorus
Db5             G#5
Mind, gimme the sign,
         B5
And he's only moving slowly,
         F#5
Cos it's moving so much faster in your x 2

4. Break

Rhythm:
e|--------------------------|
B|--------------------11-11-|
G|--------------------11-11-|         x4
D|-11--11-11--11-11---11-11-|
A|-11--11-11--11-11---9--9--|
E|-9---9--9---9--9----------|

Lead:
e|--------------------------------|
B|--------------------------------|
G|-13-13--13--13--13--13-15-15-15-|
D|--------------------------------|
A|-11-11--11--11--11--11-13-13-13-|
E|--------------------------------|

5. Verse 2 (same as verse 1)

6. Pre-Chorus

       G#5          A#5   B5
It's a lie, which exists, only in his...

7. Chorus (first half as before, then:)

Db5             G#5
Mind, gimme the sign,
         B5
And he's only moving slowly,
         F#5   G#5 A#5    C5   Db5 Eb5
Cos it's moving so much faster in your

8. Bridge - First half (Copy of melody)

e|-----------------------------|
B|-----------------------------|
G|-13-11-10-8-6-10-10-10-10-8--|
D|-----------------------------|
A|-11--9--8-6-4--8--8--8--8-6--|
E|-----------------------------|

e|-------------------------------------------------|
B|-------------------------------------------------|
G|-8-10-11-10-11-10-13-11-8-10-11-10-11-10-13-11-6-|
D|-------------------------------------------------|
A|-6--8--9--8--9--8-11--9-6--8--9--8--9--8-11--9-4-|
E|-------------------------------------------------|

e|-----------------------------------------------------------------|
B|-----------------------------------------------------------------|
G|-13-11-10-8-6-10-10-10-10-11-10-8--8-10-11-10-11-10-13-11--13-18-|
D|-----------------------------------------------------------------|
A|-11--9--8-6-4--8--8--8--8--9--8-6--6--8--9--8--9--8-11--9--11-16-|
E|-----------------------------------------------------------------|

9. Bridge - Second Half (Vocals)
G#5                                            F#5
Well you can press more buttons than a sky remote
G#5                                  F#5
But sing a tune and I bet you'll choke
B5                                   F#/A#
Step outside cos we're coming through
B5                               F#/A#
We've got no time for this or you

10. Chorus

11. Break but ending on F#5 x 4 then a Db5

-----------------------------------------------------------------------------

2. Bigger Cages, Longer Chains

Chords -
E5  - 022XXX
G#5 - 466XXX
C#5 - X466XX
B5  - X244XX
A5  - 577XXX
A   - x02220
E   - 022100
G#  - 466544

Intro (listen out for timing)

e|----------------------------------------------|
B|----------------------------------------------|
G|-6-6-6-6-8-9-9-9-13-13-11-9-8-11-11-9-8-6-4-4-|
D|----------------------------------------------|
A|-4-4-4-4-6-7-7-7-11-11--9-7-6- 9--9-7-6-4-2-2-|
E|----------------------------------------------|

e|-----------------------------------------------|
B|-----------------------------------------------|
G|-6-6-6-6-8-9-9-9-13-13-11-11-11-11-11-11-11-11-|
D|-----------------------------------------------|
A|-4-4-4-4-6-7-7-7-11-11--9-9--9--9---9--9--9--9-|
E|-----------------------------------------------|
                          slight bend on each of these

e|-----------------------------------------------|
B|-----------------------------------------------|
G|-6-6-6-6-8-9-9-9-13-13-11-9-8-11-11-9-8-6-4-4--|
D|-----------------------------------------------|
A|-4-4-4-4-6-7-7-7-11-11--9-7-6- 9--9-7-6-4-2-2--|
E|-----------------------------------------------|

e|-----------------------------------------------|
B|-----------------------------------------------|
G|-6-6-6-6-8-9-9-9-13-13-11-11-13-13-16-16-18-18-|
D|-----------------------------------------------|
A|-4-4-4-4-6-7-7-7-11-11--9-9--11-11-14-14-16-16-|
E|-----------------------------------------------|
                         faster paced/tremelo'd

2. Break

e|--------------------|
B|------(4)-----------|
G|--6---(4)------7-7--|
D|--6-----------------|
A|--4------------5-5--|
E|--------------------|
        bend

3. Verse (listen out for timing)

e|----------------------------------------------------|
B|----------------------------------------------------|
G|-6-6--6-6-6---6-6--6-6-6---4-4--4-4-4---4-4--4-7--7-|
D|----------------------------------------------------|
A|-4-4--4-4-4---4-4--4-4-4---2-2--2-2-2---2-2--2-5--5-|
E|----------------------------------------------------|

4. Pre Chorus

     E5          G#5              C#5         B5
It's never gonna stop if you keep hiding from yourself

     E5    G#5   (no chord)
It's never stop you've got


5. Chorus

A5         B5     C#5        E5
  Bigger cages, longer chains,
A5                B5
Now is the time, is the time,

e|----------|
B|----------|
G|-4-----6--| (played back and forth quickly, listen for timing)
D|----------|
A|-2-----4--|
E|----------|

the time for change


6. Re-Intro
e|----------------------------------------------|
B|----------------------------------------------|
G|-6-6-6-6-8-9-9-9-13-13-11-9-8-11-11-9-8-6-4-4-|
D|----------------------------------------------|
A|-4-4-4-4-6-7-7-7-11-11--9-7-6- 9--9-7-6-4-2-2-|
E|----------------------------------------------|

e|-------------------------------------------------|
B|-------------------------------------------------|
G|-6-6-6-6-8-9-9-9-13-13-11-11-13-13-16-16-18-18---|
D|-------------------------------------------------|
A|-4-4-4-4-6-7-7-7-11-11--9-9--11-11-14-14-16-16---|
E|-------------------------------------------------|
                         faster paced/tremelo'd

7. Verse
8. Pre Chorus
9. Chorus

Instead of playing this on the first half, its the variation below
e|----------|
B|----------|
G|-4-----6--|
D|----------|
A|-2-----4--|
E|----------|

Variation -
e|---------------------------------|
B|---------------------------------|
G|-4-6-6-4-6-4---------------------|
D|-------------6-6-6-4-4-4-2-2-----|
A|-2-4-4-2-4-2-----------------4-4-|
E|-------------4-4-4-2-2-2-0-0-----|


10. Bridge

e|-------------------------------------------|
B|-------------------------------------------|
G|-6-6-6-6-4-11-9-13-13-11-11-11-11-11-11-11-|
D|-------------------------------------------|
A|-4-4-4-4-2-9--7-11-11-9---9--9--9--9--9--9-|
E|-------------------------------------------|
                        slight bend on these

e|-------------------------------------------|
B|-------------------------------------------|
G|-6-6-6-6-4-11-9-13-13-----5---8---9--------|
D|----------------------6--------------------|
A|-4-4-4-4-2-9--7-11-11-----3---6---7--------|
E|----------------------4--------------------|
                        tremolo pick each of these

e|-------------------------------------------|
B|-------------------------------------------|
G|-6-6-6-6-4-11-9-13-13-11-11-11-11-11-11-11-|
D|-------------------------------------------|
A|-4-4-4-4-2-9--7-11-11-9---9--9--9--9--9--9-|
E|-------------------------------------------|

   A    E    G#            <- (Rhythm guitar)
e|-------------------------------------------|
B|-------------------------------------------|
G|-14---13---17---20-------------------------|
D|-------------------------------------------|
A|-12---11---15---18-------------------------|
E|-------------------------------------------|
   listen for strumming pattern


11. Last Chorus

A5        B5    C#5        E5
  Bigger cages, longer chains,
A5               B5                         G#
Now is the time, is the time, the time for change


Then second half is the same as before, finishing on a

e|------|
B|------|
G|-6----|
D|------|
A|-4----|
E|------|

----------------------------------------------------------------------------

3. Saturday

Chords -
F#5  - 244XXX
B5   - X244XX
A#5  - x133XX
C#5  - X466XX
F#   - 244322
B    - x24442
C#   - x46664

Intro

First guitar:
F#5 and B5

2nd guitar:

End of first line
e|-----------------------------------------|
B|-----------------------------------------|
G|-11-11-11-11-10-10-10-10-8-8-8-8-6-6-6-6-|     Pattern 1
D|-----------------------------------------|
A|-9--9--9--9--8--8--8--8--6-6-6-6-4-4-4-4-|
E|-----------------------------------------|

End of second line
e|-------------------------------------------------|
B|-------------------------------------------------|
G|-11-11-11-11-13-13-13-13-15-15-15-15-16-16-16-16-|      Pattern 2
D|-------------------------------------------------|
A|-9--9--9--9--11-11-11-11-13-13-13-13-14-14-14-14-|
E|-------------------------------------------------|

Verse

1st guitar:

e|-----------------------|--------------------------------|
B|-----------------------|--------------------------------|
G|-4----------4----------|--------------------------------|
D|-4----------4----------|--------------------------------|
A|-2----------2----------|-4-4-4-4-4-4-4-4--4-4-4-4-4-4-4-|
E|-----------------------|-2-2-1-1-2-2-1-2--2-1-1-2-2-1-1-|

2nd guitar:

e|-----------------------|-----------------------------------------------|
B|-----------------------|-----------------------------------------------|
G|-----------------------|-11-11-10-10-11-11-10-11--11-10-10-11-11-10-10-|
D|-----------------------|-----------------------------------------------|
A|-----------------------|-9--9--8--8--9--9--8--9---9--8--8--9--9--8--8--|
E|-----------------------|-----------------------------------------------|

Pre-chorus

A#5                                  B5
Take a look around and see what you want to see

A#5                                           B5
There's a train tonight we'll leave when you wanna leave


Chorus

F#                               B
Saturday, Saturday will make it all ok

2nd guitar plays the same patterns from the intro


Bridge

F#                               B
There's a train tonight, we'll leave when you want to, leave when you want to

F#                             B
If you've seen the light, then be who you want to, be who you want


2nd guitar plays Pattern 2 on 'be who you want to' then:
Pattern 1 on 'leave when you want to'
Pattern 2 on 'be who you want to' again


Re-intro:

Same as the Intro except the following is substituted in place on

e|--------------------------------------------|
B|--------------------------------------------|
G|-11-11-11-11-10-10-10-10-8-10-8-10-8-10-8---|
D|--------------------------------------------|
A|-9--9--9--9--8--8--8--8--6-8--6-8--6-8--6---|
E|--------------------------------------------|


Final chorus:

F#                               B      C#
Saturday, Saturday will make it all ok, oh, oh, oh, oh, oh

F#                               B      C#              F#
Saturday, Saturday will make it all ok, oh, oh, oh, oh, oh

-----------------------------------------------------------------------------

4. 1-2-3-4

Chords -
C#  - X46664
Ebm - x68876
B   - x24442

1. Intro

e|---------------------------|
B|---------------------------|
G|------8--------------------|
D|-4----8--9999999999999999--|
A|-4--4-6--9999999999999999--|
E|-2--1----7777777777777777--|

2. Verse

e|---------------------------------------------|
B|---------------------------------------------|
G|---------------------------------------------|
D|---------------------------------------------|
A|-------------------6666666666666666-99999999-|
E|-77777777-99999999---------------------------|
                                                                      x 2 whole section
e|------------------------------------------------------------------|
B|------------------------------------------------------------------|
G|------------------------------------------------------------------|
D|-------------------------13-13-------13-13-------13-13------13-13-|
A|------------------------------------------------------------------|
E|-77777777-99999999-11-11-------11-11-------11-11-------11-11------|

Overdubbed Guitar -
e|---------------------------------------------|
B|-------------------16------------------------|
G|-------------------15------------------------|
D|-------------------13------------------------|
A|---------------------------------------------|
E|-77777777-99999999---------------------------| 1st and 3rd time of section
                     prominent short-delay

3. Chorus - listen out for timing

e|------------------------------|--------------------------------|
B|------------------------------|--------------------------------|
G|-------------8----------------|-------6-----4------------------|
D|-4-----------8-----9---9-11---|-4-----6-----4------------------|
A|-4-----4-----6-----9-9-9-11---|-4-----4-----2------------------|
E|-2-----1-----------7-6-7-9----|-2------------------------------|
                                              strum to end of bar

e|------------------------------|-----------------------------------|
B|------------------------------|-----------------------------------|
G|-------------8----------------|-------6-----4-4--6-4-4--6-4-4--4--|
D|-4-----------8-----9---9-11---|-4-----6-----4-4--6-4-4--6-4-4--4--|
A|-4-----4-----6-----9-9-9-11---|-4-----4-----2-2--4-2-2--4-2-2--2--|
E|-2-----1-----------7-6-7-9----|-2---------------------------------|
                                                                 strum to end

Slide guitar

e|----------------------|-----------------------|
B|-11----9----7----4----|-7----6----4-----------|
G|----------------------|-----------------------|
D|----------------------|-----------------------|
A|----------------------|-----------------------|
E|----------------------|-----------------------|

Slide into each note.

This is the main line the slide guitar plays, but it does subtley play around it a 
little bit.
(But not enough for us to care about tabbing it in detail).

4. Verse 2

5. Pre-Chorus

e|---------------------------------------------|
B|---------------------------------------------|
G|------------11--------11-11------------------|
D|-6----9-----11-11-11--11-11-11-11------------|
A|-6----9-----9--11-11--9--9--11-11------------|
E|-4----7--------9--9---------9--9-------------|

strum first two chords, listen for timing

6. Chorus

7. Bridge

C#                Ebm            B
Lost all feeling, while you were dreaming I

C#                 Ebm          B
Stopped believing, oh you never know

C#                Ebm             B
Lost all feeling I almost stopped breathing you know

C#               Ebm        B
I'm not leaving, oh here we go


Then:

e|---------------------|------------------|
B|----6-6--7-7--4-4----|----6-6--4-4------|
G|-3--6-6--8-8--4-4--3-|-3--6-6--4-4------|
D|-4--6-6--8-8--4-4--4-|-4--6-6--4-4------|
A|-4--4-4--6-6--2-2--4-|-4--4-4--2-2------|
E|-2-----------------2-|-2----------------|

On the last one strum out the last chord for another 2 bars.

-----------------------------------------------------------------------------

5. Like A Dancer

Chords -
Db5  - X466XX
Gb5  - 244XXX
Bb5  - 688XXX
Ab5  - 466XXX
Ab/C - x36xxx
Db/F - 14xxxx
Eb5  - X688XX

1. Intro/Main Riff
e|-------------------------------------------------------|
B|-------------------------------------------------------|
G|-11-10-11-10-11-10-11-13-13-13-11-10-11-10-11-10-8-6-6-|
D|-------------------------------------------------------|
A|--9--8--9--8--9--8--9-11-11-11--9--8--9--8--9--8-6-4-4-|
E|-------------------------------------------------------|

e|-----------------------------------------------|
B|-----------------------------------------------|
G|-11-10-11-10-11-10-11-13-13-13-13--11-10-8-6-6-|
D|-----------------------------------------------|
A|--9--8--9--8--9--8--9-11-11-11-11---9--8-6-4-4-|
E|-----------------------------------------------|

2. Verse

Db5 	        Gb5               Bb5
Standing in the rain, bus is late again,
                   Gb5 Ab5 Bb5 Ab/C
she's been waiting for the answer
Db5 	        Gb5                   Bb5
She won't go away, until it comes her way,
          Gb5 Ab5 Bb5 Ab/C
she won't miss another chance

3. Pre-Chorus

             Ab5       Gb5
Aaaaand it's hard to take,
           Ab5         Gb5
but she's hard to break
         Ab5
And it's hard

4. Chorus
                  Db5           Gb5                 Bb5
There's a twinkle in her little eye, and just for a minute,
          Gb5 Ab5 Bb5 Ab/C
she feels like a dancer

Db5              Gb5                      Bb5
  If you let her in, then she'll stay for life,
                Gb5 Ab5 Bb5 Ab/C
cause she feels like a dancer

Gb5 Ab5 Bb5 Ab/C
like a dancer tonight

5. Re-Intro - Same As Intro

6. Verse 2 - Same As Verse 1

7. Pre-Chorus

             F5     Gb5
Aaaaand it's hard to take,
           F5    Gb5
but she's hard to break
          Ab5     Gb5     Ab5
Said it's hard to taaaaaaaaaake

(octaves of the last three chords can be heard as an overdub)
e|--------|
B|--------|
G|-13--11-|
D|--------|
A|-11--9--|
E|--------|
   Ab5 Gb5

7. Chorus
                  Db5           Gb5                 Bb5
There's a twinkle in her little eye, and just for a minute,
          Gb5 Ab5 Bb5 Ab/C
she feels like a dancer
Db5              Gb5                      Bb5       Gb5 Ab5 Bb5 Ab/C
  If you let her in, then she'll stay for liiiiiiiiiiiiiiiiife
Db5           Gb5                 Bb5              Gb5 Ab5 Bb5 Ab/C
There's a twinkle in her little eye, and she feels like a dancer
Db5              Gb5                      Bb5       Gb5 Ab5 Bb5 Ab/C
  If you let her in, then she'll stay for liiiiiiiiiiiiiiiiife

8. Bridge
    Ab5           Bb5             Gb5         Gb5 Db/F Eb5 Db5
And tonight's the night, that she will find it,
       Ab5      Bb5         Gb5        Db/F Gb5 Db/F Gb5
in her eyes the lights, are all shining
    Ab5                  Bb5
She feels like a dancer, feels like a dancer
        Eb5   F5  Gb5
As she slips away again,

9. Chorus
                  Db5           Gb5                 Bb5
There's a twinkle in her little eye, and just for a minute,
          Gb5 Ab5 Bb5 Ab/C
she feels like a dancer
Db5              Gb5                      Bb5       Gb5 Ab5 Bb5 Ab/C
  If you let her in, then she'll stay for liiiiiiiiiiiiiiiiife
Db5           Gb5                 Bb5              Gb5 Ab5 Bb5 Ab/C
There's a twinkle in her little eye, and she feels like a dancer
Db5              Gb5                      Bb5
  If you let her in, then she'll stay for life,

          Gb5 Ab5 Bb5 Ab/C
She feels like a dancer

Gb5 Ab5 Bb5 Ab/C
like a dancer

Gb5 Ab5 Bb5 Ab/C Db5
like a dancer tonight

-----------------------------------------------------------------------------

6. Come Into My World

Chords -
F#5 - 244XXX
E5  - 022XXX
B5  - X244XX
C#5 - X466XX
A#5 - 688XXX
D5  - X577XX

1. Intro (listen out for strumming pattern)

e|---------------------------|
B|---------------------------|
G|-9--8----------------------|
D|-9--9--9--8----------------|
A|-7--6--9--9----------------|
E|-------7--6----------------|

2. Verse 1
F#5
Forget your worries and your cares for a day
F#5
Forget the gasman, the gasmans too late
E5                     B5                   F#5
Theres always someone, someone who won't wait
E5                           B                         F#5
How come its always the ones, the ones who want to get paid

3. Chorus
C#
Come on, come on, come on, come on
B5
Come on, come on, come on, come on, into my
F#5
world, my world

3. Verse 2 (same chords as verse 1)

4. Pre-Chorus

e|---------------|----------------|-------------------|----|
B|---------------|----------------|-------------------|----|
G|-6--8--10--11--|-8--10--11--13--|-11------------13--|-11-|
D|---------------|----------------|-------------------|----|
A|-4--6--8---9---|-6--8---9---11--|-9-------------11--|-9--|
E|---------------|----------------|-------------------|----|

5. Chorus (as per first chorus)

6. Bridge
A#5                B5
I don't want to be afraid,
D5                F#5
I don't wanna go insane,
A#5                B5
I only wanna get away,
C#5
for a day

7. Re-Intro (same as intro with extra F#5 chord played at the end)

8. Chorus (as before)

9. Outro (same as intro)

----------------------------------------------------------------------------

7. This Is Real

Chords
F#5 - 244xxx
B5  - x244xx

Song goes back and forth between F#5 and B5 throughout.
Only other guitar part is a lead part that repeats twice in
the song at 2.00 and 3.08.

Lead Part -

e|-------------------------------------------------------------|
B|-------------------------------------------------------------|
G|-6---6-6-6-6-4-3-----------4-3---6-6-6-6-6-6h8-6-------4-3---|
D|-----------------4-4-4-4-6-----4-------------------4h6-----4-|
A|-------------------------------------------------------------|
E|-------------------------------------------------------------|


Verse:

F#5               B5                           F#5                   B5
Slept in my clothes again, couldn't make it to my own bed, I'd only lie awake...


Pre-chorus:

  F#5                                B5
I hope to god we'll find some money soon...


Chorus:

        F#5                          B5
This is real, this is real, but I know we'll make it through...


Bridge:

F#5                          B5
Love we don't have much, but what we have's enough...

----------------------------------------------------------------------------

8. 2 Kids

Chords-
B     - x24442
Bsus2 - x24422
C#m7  - x46454
E     - 022100
B/D#  - x6444x
F#    - 244322

The main progression the guitar plays throughout this song is the following:

B Bsus2 C#m7 E

Where on the E the following is played:

e|-----------------|
B|-5-5-4-4-2-2-4-2-|
G|-4-4-4-4-4-4-4-4-|
D|-2-2-2-2-2-2-2-2-|
A|-2-2-2-2-2-2-2-2-|
E|-0-0-0-0-0-0-0-0-|


However, with the bass moving underneath the overall harmony created is

B B/D# C#m7 E

So if you're playing on your own the 2nd progression works best, if you're playing with
a bassist the 1st is closer to the actual guitar part. I'll use the 2nd one throughout
this tab but obviously they are interchangeable in all instances.

Intro: Acoustic guitar plays main progression

Keys part (arr. for guitar, may be an octave higher, has a weird effect on it)

e|-------------7-----------|-----------------7----------7-----------|
B|-------4h5-7---7-5-4-----|-4-5-7---4-5-7-----7--4h5-7---7-5-4-----|
G|---------------------4-4-|------------------------------------4-4-|
D|-------------------------|----------------------------------------|
A|-------------------------|----------------------------------------|
E|-------------------------|----------------------------------------|


Verse:

B           B/D#               C#m7                 E
On the last day of school your best friend told you

B             B/D#             C#m7                  E
We'll have it all we'll have a ball when we're older


Pre-chorus:

E             F#
  But life is short

E                   F#
  Shorter than they say

E               F#
  You can never take

E                 F#
Take our memories away


Chorus:

B             B/D#                   C#m7            E
Two kids in a dirty old flat you can never look back

B                B/D#                      C#m7           E
Four years and a thousand beers that we'll never get back

(Keys part plays underneath the end of each line, listen out for timing)


Bridge:

Acoustic guitar plays main progression, keys play:

e|--------------------------------------------------------|
B|-----4-4------------------------------------------------|
G|-4-4-----6-6-4-4-3-3-6-6-4-4-3-3-4--------4-4---4-6-4-6-|
D|-------------------------------------2-2------2---------|
A|--------------------------------------------------------|
E|--------------------------------------------------------|

Outro:

(strummed)
C#m7       E

(hits)
B   B/D#  C#m7

----------------------------------------------------------------------------

9. Turn It On

Chords -
C#5 - X466XX
F#5 - 244XXX
G#5 - 466XXX
A#5 - 688XXX
F5  - 133xxx

1. Intro

   C#5                    (F5)
e|----------------------------|
B|----------------------------|
G|-13-13--13-13--13-13-11-10--|
D|----------------------------|
A|-11-11--11-11--11-11--9--8--|
E|----------------------------|x 2

   G#5
e|----------------------------|
B|----------------------------|
G|-17-17--17-17--17-17-15-13--|
D|----------------------------|
A|-15-15--15-15--15-15-13-11--|
E|----------------------------|x 2


2. Verse
C#5                           (F#5)
go ahead and tell your little sub-story
C#5
make you mad or make you anti-glory
G#5
there all waiting for a subtle tale
G#5
crocodile tears on a tragic scale
C#5                                     (F#5)
get up and tell them that you've had it tough
C#5
tell them all about it, how its been so rough
G#5
and if that dosnt get em you can spruse it up
G#5
add a little fiction till they're all hold up

3. Pre-Chorus
F#5
The more you want, the less you know
F#5
A talentless woman, the greatest show
C#5
On earth, it's not, it's simply a joke
C#5
Just do what you want, just do what you want

4. Chorus
G#5
Turn, turn it on, turn it on, turn it on,
             F#5
Your not the only one x 3
G#5
Turn, turn it on, turn it on, turn it on,
             F#5
Your not the only one to have things all go wrong

5. Re-Intro (first half of intro only)
6. Verse 2 (same as verse 1)

7. Pre-Chorus
A#5
The more you watch the less you know
F#5
A talentless woman, the greatest show
G#5                                        C#5
On earth, it's not, it's simply a joke you know

8. Chorus
G#5
Turn, turn it on, turn it on, turn it on,
             F#5
Your not the only one x 3
G#5
Turn, turn it on, turn it on, turn it on x2

9.Bridge
F#5
And in a year you'll all be gone
F#5
Burned out churned out same old song how
C#5
predictable

10. Chorus
11. Outro (same as intro x 2 and with very last run being)

e|---------------------------------|
B|---------------------------------|
G|-17-17--17-17--17-17-15-13-11-10-|
D|---------------------------------|
A|-15-15--15-15--15-15-13-11--9--8-|
E|---------------------------------|

-----------------------------------------------------------------------------

10. It's A Race

Chords -
F#    - 244322
E     - 022100
B     - x24442
B5    - x244xx
F#/A# - x14xxx
F#5   - 244xxx
E5    - 022xxx
F#7   - x44320 or 242322

Intro

F#     E

Main Riff -

       B         F#        B         F#
e|----------------------------------------------|
B|----------------------------------------------|
G|-9-8------------------------------------------|
D|-----9--9--9-8--------------------------------|
A|---------------9--9--7-6------------------7-6-|
E|-------------------------7--7--7-6-2--2-------|

                                            ^ ^
                                           These last two notes should be
                                           an octave lower but standard tuning
                                           obviously doesn't allow this.


Verse: (1st verse is just root notes, 2nd verse is 5th chords, always palm-muted)

B5  F#/A# F#5           E5  B5
The money makers rule the world

             F#/A# F#5                E5  B5
If you want a      piece then give it a whirl


Pre-chorus:

       F#5            F#7
It's a race... It's a raaaaaace


Chorus:
           B          F#
Gimme some fire for my soul

           B                 F#
My belly's burnin' out of control

          B              F#
I'm gonna fight before I die

              B             F#
I don't wanna live an empty life

       F#              F#7
It's a waste... It's a waaaaaste

Guitar Solo

       B5        F#5       B5            F#5
e|-------------------------------------------|
B|-------------------------------------------|
G|-9-8---------------------------------------|
D|-----9--9--9-8-----------------------------|
A|---------------9--9--7-6-------------------|
E|-------------------------7--7--7-9-11--9---|

       B5          F#5       B5                 F#5
e|-------------------------------------------------|
B|-------------------------------------------------|
G|-9-8-------------------8-9-8-9-11-11-11-11b13u11-|
D|-----9--9--11-13-11------------------------------|
A|-------------------------------------------------|
E|-------------------------------------------------|

       B5        F#5       B5         F#5
e|-------------------------------------------|
B|-------------------------------------------|
G|-9-8-8--8------------9-8-8--8-9-8----------|
D|-----9--9--9-8-8--8------9--9-----9-8------|
A|---------------9--9-----------------9------|
E|-------------------------------------------|

       B5        F#5     B5             F#5
e|-------------------------------------------------|
B|-------------------------------------------------|
G|-9---8--8----------------------------------------|
D|-----9-----9---8--8----9-8-----------------------|
A|---------------9-----------9-9-9-9s11s9----------|
E|-------------------------------------------------|


   F#
e|-------------------------------------------|
B|-------------------------------------------|
G|------------------s9-----------------------|
D|-10b11------------s11----------------------|
A|-------------------------------------------|
E|-------------------------------------------|

   F#
e|-------------------(11)--------------------------|
B|-12b14------------------12-11--------------------|
G|-------------------------------------------------|
D|-------------------------------------------------|
A|-------------------------------------------------|
E|-------------------------------------------------|

Repeat chorus and end on a B5.

-----------------------------------------------------------------------------

11. Get Up And Dance

Chords -
A     - x02220
E/G#  - 476454
D     - xx0232
A/C#* - x4222x
A/C#  - x47xxx
E     - 022100
Bm    - x24432

Intro

Main Riff: (plays throughout)

e|-(12)-(12)-(12)-(12)-(12)-(12)-(12)-(12)-|
B|-(12)-(12)-(12)-(12)-(12)-(12)-(12)-(12)-|
G|--14---14---14---14---14---14---14---14--|
D|--14---14---14---14---14---14---14---14--|
A|-----------------------------------------|
E|-----------------------------------------| x 2

e|-(12)-(12)-(12)-(12)-(12)-(12)-(12)-(12)-|
B|-(12)-(12)-(12)-(12)-(12)-(12)-(12)-(12)-|
G|--13---13---13---13---13---13---13---13--|
D|--14---14---14---14---14---14---14---14--|
A|-----------------------------------------|
E|-----------------------------------------| x 2

2nd guitar:

e|-------------------------------|-------------------------------|
B|-------------------------------|-------------------------------|
G|-------------------------------|-------------------------------|
D|-14--14--14--14-14--14-14---14-|-14--14--14--14-14--14-14---14-|
A|-12--12--12--12-12--12-12---12-|-11--11--11--11-11--11-11---11-|
E|-------------------------------|-------------------------------|

(Bass plays D then C# back and forth)

Verse:

The guitar plays the same as in the intro, but the bass plays a progression underneath.
The following is the overall harmony:

A                  E/G#
In a dirty old bar, in a troubled town,
A                          E/G#                       D
where you watch your step, and you keep your eyes down

(D)                A/C#*          D                  A/C#*         E
Friend of a friend, open my mind, it's about to turn, a lonely life


Pre-chorus:

(E)            D
      Over again

E                                   D
Over and over and over and over again


On the 2nd pre-chorus (and all pre-choruses after) a 2nd guitar plays the following over 
the last D:

e|---------------------------------|
B|---------------------------------|
D|-7-7-7-7-7-7-7-7-9-9-9-9-9-9-9-9-|   Pattern 1
G|---------------------------------|
A|-5-5-5-5-5-5-5-5-7-7-7-7-7-7-7-7-|
E|---------------------------------|

e|-------------------------------------------------|
B|-------------------------------------------------|
D|-11-11-11-11-11-11-11-11-13-13-13-13-13-13-13-13-|   Pattern 1 (cont)
G|-------------------------------------------------|
A|-9--9--9--9--9--9--9--9--11-11-11-11-11-11-11-11-|
E|-------------------------------------------------|
Chorus:

    A                           E
You can't live on memories when memories fade,

Bm                       D5  A/C# D5  A/C#
This is your song so you get up,  get up and

A                       E
Dance in the morning, a smile on your face,

Bm                       D5  A/C# D5  A/C#   A
This is your song so you get up,  get up and dance


(when going into the bridge, don't play the last A)


Bridge: (Same as the pre-chorus)

E                                        D
I crack my back working for somewhere to stay

E                                          D
And I'll never stop searching to find us a way


and Pattern 1 over the last D as in the pre-choruses

-----------------------------------------------------------------------------

12. Make A Man

Chords -
C#    - x46664
B     - x24442
C#/A# - x14xxx
F#    - 244322

1. Intro:
with octaves later joining.

e|-----------------|
B|-4---------------|
G|-4---3--3-3--3-3-|
D|-4-4-4--4-4--4-4-|
A|-2-1-4--4-4--4-4-|
E|-----2--2-2--2-2-|

2. Verse:

e|-----------------|
B|-4---------------|
G|-4---3-----------|
D|-4-4-4-----------|
A|-2-1-4-----------|
E|-----2-----------|

x 4 then same as the intro

3. Pre-chorus:
C#           B
I woke up in world war something

C#               B
Lost my feelings I got nothing

4. Chorus: (Same as intro)

B    C#/A# F#
Make a     man

B  C#/A# F#
If you   can

B  C#/A# F#
Of this  boy

B  C#/A# F#
In your  hands

5. Break between chorus and verse (same as pre-chorus)

C#       B     x2

6. Bridge

e|-------------------------------------------------|
B|-11-11-11-11-11-11-11-11-9--9--9--9--9--9--9--9--|
G|-11-11-11-11-11-11-11-11-11-11-11-11-11-11-11-11-|
D|-------------------------------------------------|
A|-------------------------------------------------|
E|-------------------------------------------------|


e|--------------------------11-11-11-11-11-14-14-14-|
B|--12-12-12-12-12-12-12-12-12-12-12-12-12-12-12-12-|
G|--11-11-11-11-11-11-11-11-11-11-11-11-11-11-11-11-|
D|--------------------------------------------------|
A|--------------------------------------------------|
E|--------------------------------------------------|

Keep playing this when the rhythm kicks in properly, the chords underneath are:

         F#                             B
Well you know when it's over, when it's over it's over

-----------------------------------------------------------------------------

And on that note, thats the tab, enjoy!
comments
We did not receive enough feedback on this tab! Please rate:
print report bad tab
1 2 3 4 5
I want to post or [tab]
guest
You may want to rate the tab now too:
select rating
Please do not post tabs as comments. Select "correction" instead!