Oops, an error
Loading. Please wait.

1000 Letters Tab

829 views 1 this week
no commentswrite comment
1 2 3 4 5
please rate
Autoscroll
+/-
esc
set tempo
stop
Contributor
Tabbers playing skills
beginner
WARNING: You are trying to view
                                    content from Ultimate-Guitar.com
                                    in an unauthorized application,
                                    which is prohibited.

                                    Please use an official Ultimate
                                    Guitar Tabs application for iPhone,
                                    iPad or Android to access legitimate
                                    chords, guitar, bass, and drum tabs
                                    from Ultimate-Guitar.com database.

                                    Type "ultimate guitar tabs" in Apple
                                    App Store's or Android Market's
                                    search to find the application.
-------------------------------------------------------------------------------
1000 Letters - The Ergs!
3 Guys 12 Eyes

Ergs Official Website: http://www.dorkrockcorkrod.com/
-------------------------------------------------------------------------------
Tabbed by: axeslash
Email: holmzito@yahoo.com

Tuning: Both guitars Standard

Guitar 1:
e|------------------------------------------------------------------|
B|------------------------------------------------------------------|
G|-----------------10-10-10--8-8-8----------------------------------|
D|-6-6-6-6-6-6-6-6-10-10-10--8-8-8--6-6-6-6-6-6-6-6-----------------|
A|-6-6-6-6-6-6-6-6--8--8--8--6-6-6--6-6-6-6-6-6-6-6-----------------|
E|-4-4-4-4-4-4-4-4------------------4-4-4-4-4-4-4-4-7-7-6-7-9-9-7-6-| x2
Guitar 2:
e|-----------------------------------------------------------|
B|-----------------------------------------------------------|
G|-----------------X-X--10--X-X 8-----------------------6----|
D|-6-6-6-6-6-6-6-6-X-X--10--X-X-8--6-6-6-6-6-6-6-6-9----6----|
A|-6-6-6-6-6-6-6-6-X-X---8--X-X-6--6-6-6-6-6-6-6-6-9----4----|
E|-4-4-4-4-4-4-4-4-----------------4-4-4-4-4-4-4-4-7---------| x2

Guitar 1:
e|-----------------------------------------------------------------|
B|-----------------------------------------------------------------|
G|-----------------8-8-8-8-6-6-6-6-----------------8-8-8-8-6-6-6-6-|
D|-6-6-6-6-6-6-6-6-8-8-8-8-6-6-6-6-6-6-6-6-6-6-6-6-8-8-8-8-6-6-6-6-|
A|-6-6-6-6-6-6-6-6-6-6-6-6-4-4-4-4-6-6-6-6-6-6-6-6-6-6-6-6-4-4-4-4-|
E|-4-4-4-4-4-4-4-4-----------------4-4-4-4-4-4-4-4-----------------|
Guitar 2:
e|-------------------------------------------------------------|
B|-------------------------------------------------------------|
G|-----------------X-X-8--X-X-6------------------X-X-8--X-X-6--|
D|-X-X-X-X-X-X-X-X-X-X-8--X-X-6--X-X-X-X-X-X-X-X-X-X-8--X-X-6--|
A|-X-X-X-X-X-X-X-X-X-X-6--X-X-4--X-X-X-X-X-X-X-X-X-X-6--X-X-4--|
E|-X-X-X-X-X-X-X-X---------------X-X-X-X-X-X-X-X---------------|


Guitar 1:
e|--8--8--8--8---------4-4-4-4--------------------------------------------------|
B|--9--9--9--9-8-8-8-8-4-4-4-4--------------------------------------------------|
G|-10-10-10-10-8-8-8-8-5-5-5-5-5-5-5-5-6-6-6-6-6-6-6-6-8-8-8-8-8-8-8-8-8--------|
D|-------------8-8-8-8-6-6-6-6-6-6-6-6-6-6-6-6-6-6-6-6-8-8-8-8-8-8-8-8-8--------|
A|-----------------------------6-6-6-6-4-4-4-4-4-4-4-4-6-6-6-6-6-6-6-6-6--------|
E|-----------------------------4-4-4-4------------------------------------------|
Guitar 2:
e|---------------------------------------------------------------|
B|---------------------------------------------------------------|
G|-X-X-10--X-X-8--------X-X-X-X-X-X-X-X-8-8-8-8-8-8-8-8-8--------|
D|-X-X-10--X-X-8--------X-X-X-X-X-X-X-X-8-8-8-8-8-8-8-8-8--------|
A|-X-X--8--X-X-6--------X-X-X-X-X-X-X-X-6-6-6-6-6-6-6-6-6--------|
E|---------------------------------------------------------------|

Guitar 1:
e|-----------------------------------------------------------------|
B|-----------------------------------------------------------------|
G|-----------------8-8-8-8-6-6-6-6-----------------8-8-8-8-6-6-6-6-|
D|-6-6-6-6-6-6-6-6-8-8-8-8-6-6-6-6-6-6-6-6-6-6-6-6-8-8-8-8-6-6-6-6-|
A|-6-6-6-6-6-6-6-6-6-6-6-6-4-4-4-4-6-6-6-6-6-6-6-6-6-6-6-6-4-4-4-4-|
E|-4-4-4-4-4-4-4-4-----------------4-4-4-4-4-4-4-4-----------------|
Guitar 2:
e|------------------------------------------------------------|
B|------------------------------------------------------------|
G|-----------------X-X-8--X-X-6------------------X-X-8--X-X-6-|
D|-6-6-6-6-6-6-6-6-X-X-8--X-X-6--6-6-6-6-6-6-6-6-X-X-8--X-X-6-|
A|-6-6-6-6-6-6-6-6-X-X-6--X-X-4--6-6-6-6-6-6-6-6-X-X-6--X-X-4-|
E|-4-4-4-4-4-4-4-4---------------4-4-4-4-4-4-4-4--------------|

Guitar 1:
e|--8--8--8--8---------4-4-4-4---------------------------------------------------------|
B|--9--9--9--9-8-8-8-8-4-4-4-4---------------------------------------------------------|
G|-10-10-10-10-8-8-8-8-5-5-5-5-5-5-5-5-6-6-6-6-6-6-6-6-8-8-8-8-8-8-8-8-8-8-8-8-8-8-8-8-|
D|-------------8-8-8-8-6-6-6-6-6-6-6-6-6-6-6-6-6-6-6-6-8-8-8-8-8-8-8-8-8-8-8-8-8-8-8-8-|
A|-----------------------------6-6-6-6-4-4-4-4-4-4-4-4-6-6-6-6-6-6-6-6-6-6-6-6-6-6-6-6-|
E|-----------------------------4-4-4-4-------------------------------------------------|
Guitar 2:
e|-------------------------------------------------------------------------------------|
B|-------------------------------------------------------------------------------------|
G|-10-10-10-10-8-8-8-8-----------------6-6-6-6-6-6-6-6-8-8-8-8-8-8-8-8-8-8-8-8-8-8-8-8-|
D|-10-10-10-10-8-8-8-8-6-6-6-6-6-6-6-6-6-6-6-6-6-6-6-6-8-8-8-8-8-8-8-8-8-8-8-8-8-8-8-8-|
A|--8--8--8--8-6-6-6-6-6-6-6-6-6-6-6-6-4-4-4-4-4-4-4-4-6-6-6-6-6-6-6-6-6-6-6-6-6-6-6-6-|
E|---------------------4-4-4-4-4-4-4-4-------------------------------------------------|

Guitar 1:
e|------------------------------------------------------------------------------------------------|
B|------------------------------------------------------------------------------------------------|
G|-6-6-6-6-6-6-6-6-8-8-8-8-8-8-8-8--------------------------------6-6-6-6-6-6-6-6-8-8-8-8-8-8-8-8-|
D|-6-6-6-6-6-6-6-6-8-8-8-8-8-8-8-8-6-6-6-6--5--4--3-3-3-3-3-3-3-3-6-6-6-6-6-6-6-6-8-8-8-8-8-8-8-8-|
A|-4-4-4-4-4-4-4-4-6-6-6-6-6-6-6-6-6-6-6-6--5--4--3-3-3-3-3-3-3-3-4-4-4-4-4-4-4-4-6-6-6-6-6-6-6-6-|
E|---------------------------------4-4-4-4--3--2--1-1-1-1-1-1-1-1---------------------------------|
Guitar 2:				[X--X--X]
e|-----------------------------------------------------------------------------------------------|
B|---------------------------------9----9--8--7--6-6-6-6-6-6-6-6---------------------------------|
G|-6-6-6-6-6-6-6-6-8-8-8-8-8-8-8-8-8----8--7--6--5-5-5-5-5-5-5-5-6-6-6-6-6-6-6-6-8-8-8-8-8-8-8-8-|
D|-6-6-6-6-6-6-6-6-8-8-8-8-8-8-8-8-6----6--5--4--3-3-3-3-3-3-3-3-6-6-6-6-6-6-6-6-8-8-8-8-8-8-8-8-|
A|-4-4-4-4-4-4-4-4-6-6-6-6-6-6-6-6-------------------------------4-4-4-4-4-4-4-4-6-6-6-6-6-6-6-6-|
E|-----------------------------------------------------------------------------------------------|
				       [X--X--X]
Guitar 1:
e|------------------------------------------------------------------|
B|------------------------------------------------------------------|
G|-----------------10-10-10--8-8-8----------------------------------|
D|-6-6-6-6-6-6-6-6-10-10-10--8-8-8--6-6-6-6-6-6-6-6-----------------|
A|-6-6-6-6-6-6-6-6--8--8--8--6-6-6--6-6-6-6-6-6-6-6-----------------|
E|-4-4-4-4-4-4-4-4------------------4-4-4-4-4-4-4-4-7-7-6-7-9-9-7-6-| x2
Guitar 2:
e|-----------------------------------------------------------|
B|-----------------------------------------------------------|
G|-----------------X-X--10--X-X 8-----------------------6----|
D|-6-6-6-6-6-6-6-6-X-X--10--X-X-8--6-6-6-6-6-6-6-6-9----6----|
A|-6-6-6-6-6-6-6-6-X-X---8--X-X-6--6-6-6-6-6-6-6-6-9----4----|
E|-4-4-4-4-4-4-4-4-----------------4-4-4-4-4-4-4-4-7---------| x2

Guitar 1:
e|---------------------------------------------------------------|
B|---------------------------------------------------------------|
G|----------------8-8-8-8-6-6-6-6----------------8-8-8-8-6-6-6-6-|
D|-6--6-6-6-6-6-6-8-8-8-8-6-6-6-6-6--6-6-6-6-6-6-8-8-8-8-6-6-6-6-|
A|-6--6-6-6-6-6-6-6-6-6-6-4-4-4-4-6--6-6-6-6-6-6-6-6-6-6-4-4-4-4-|
E|-4--4-4-4-4-4-4-----------------4--4-4-4-4-4-4-----------------|
     [X-X-X]                        [X-X-X]
Guitar 2:
e|-------------------------------------------------------------|
B|-------------------------------------------------------------|
G|-----------------X-X-8--X-X-6------------------X-X-8--X-X-6--|
D|-X-X-X-X-X-X-X-X-X-X-8--X-X-6--X-X-X-X-X-X-X-X-X-X-8--X-X-6--|
A|-X-X-X-X-X-X-X-X-X-X-6--X-X-4--X-X-X-X-X-X-X-X-X-X-6--X-X-4--|
E|-X-X-X-X-X-X-X-X---------------X-X-X-X-X-X-X-X---------------|

Guitar 1:
e|--8--8--8--8---------4-4-4-4--------------------------------------------------|
B|--9--9--9--9-8-8-8-8-4-4-4-4--------------------------------------------------|
G|-10-10-10-10-8-8-8-8-5-5-5-5-5-5-5-5-6-6-6-6-6-6-6-6-8-8-8-8-8-8-8-8-8--------|
D|-------------8-8-8-8-6-6-6-6-6-6-6-6-6-6-6-6-6-6-6-6-8-8-8-8-8-8-8-8-8--------|
A|-----------------------------6-6-6-6-4-4-4-4-4-4-4-4-6-6-6-6-6-6-6-6-6--------|
E|-----------------------------4-4-4-4------------------------------------------|
Guitar 2:
e|---------------------------------------------------------------|
B|---------------------------------------------------------------|
G|-X-X-10--X-X-8--------X-X-X-X-X-X-X-X-8-8-8-8-8-8-8-8-8--------|
D|-X-X-10--X-X-8--------X-X-X-X-X-X-X-X-8-8-8-8-8-8-8-8-8--------|
A|-X-X--8--X-X-6--------X-X-X-X-X-X-X-X-6-6-6-6-6-6-6-6-6--------|
E|---------------------------------------------------------------|

Guitars 1 & 2:
e|-----------------------------------------------------------------|
B|-----------------------------------------------------------------|
G|-----------------8-8-8-8-6-6-6-6-----------------8-8-8-8-6-6-6-6-|
D|-6-6-6-6-6-6-6-6-8-8-8-8-6-6-6-6-6-6-6-6-6-6-6-6-8-8-8-8-6-6-6-6-|
A|-6-6-6-6-6-6-6-6-6-6-6-6-4-4-4-4-6-6-6-6-6-6-6-6-6-6-6-6-4-4-4-4-|
E|-4-4-4-4-4-4-4-4-----------------4-4-4-4-4-4-4-4-----------------|

Guitars 1 & 2:
e|--8--8--8--8---------4-4-4-4---------------------------------------------------------|
B|--9--9--9--9-8-8-8-8-4-4-4-4---------------------------------------------------------|
G|-10-10-10-10-8-8-8-8-5-5-5-5-5-5-5-5-6-6-6-6-6-6-6-6-8-8-8-8-8-8-8-8-8-8-8-8-8-8-8-8-|
D|-------------8-8-8-8-6-6-6-6-6-6-6-6-6-6-6-6-6-6-6-6-8-8-8-8-8-8-8-8-8-8-8-8-8-8-8-8-|
A|-----------------------------6-6-6-6-4-4-4-4-4-4-4-4-6-6-6-6-6-6-6-6-6-6-6-6-6-6-6-6-|
E|-----------------------------4-4-4-4-------------------------------------------------|
Guitar 2:
e|---------------------------------------------------------------|
B|---------------------------------------------------------------|
G|-X-X-10--X-X-8--------X-X-X-X-X-X-X-X-8-8-8-8-8-8-8-8-8--------|
D|-X-X-10--X-X-8--------X-X-X-X-X-X-X-X-8-8-8-8-8-8-8-8-8--------|
A|-X-X--8--X-X-6--------X-X-X-X-X-X-X-X-6-6-6-6-6-6-6-6-6--------|
E|---------------------------------------------------------------|

Guitars 1 & 2:
e|-----------------------------------------------------------------------------------------------|
B|---------------------------------9----9--8--7--6-6-6-6-6-6-6-6---------------------------------|
G|-6-6-6-6-6-6-6-6-8-8-8-8-8-8-8-8-8----8--7--6--5-5-5-5-5-5-5-5-6-6-6-6-6-6-6-6-8-8-8-8-8-8-8-8-|
D|-6-6-6-6-6-6-6-6-8-8-8-8-8-8-8-8-6----6--5--4--3-3-3-3-3-3-3-3-6-6-6-6-6-6-6-6-8-8-8-8-8-8-8-8-|
A|-4-4-4-4-4-4-4-4-6-6-6-6-6-6-6-6-------------------------------4-4-4-4-4-4-4-4-6-6-6-6-6-6-6-6-|
E|-----------------------------------------------------------------------------------------------|
				       [X--X--X]

Guitar 1:
e|---------------------------------------------------------------------|
B|---------------------------------------------------------------------|
G|-----------------10-10-10-10-8-8-8-8---------------------------------|
D|-6-6-6-6-6-6-6-6-10-10-10-10-8-8-8-8-6-6-6-6-6-6-6-6-----------------|
A|-6-6-6-6-6-6-6-6--8--8--8--8-6-6-6-6-6-6-6-6-6-6-6-6-----------------|
E|-4-4-4-4-4-4-4-4---------------------4-4-4-4-4-4-4-4-7-7-6-7-9-9-7-6-|
Guitar 2:
e|-----------------------------------------------------------------|
B|-----------------------------------------------------------------|
G|-----------------X-X--10--X-X 8----------------------------------|
D|-6-6-6-6-6-6-6-6-X-X--10--X-X-8--6-6-6-6-6-6-6-6-----------------|
A|-6-6-6-6-6-6-6-6-X-X---8--X-X-6--6-6-6-6-6-6-6-6-----------------|
E|-4-4-4-4-4-4-4-4-----------------4-4-4-4-4-4-4-4-7-7-6-7-9-9-7-6-|

Guitar 1:
e|-------------------------------------------------------------------------|
B|-------------------------------------------------------------------------|
G|-----------------10-10-10-10-8-8-8-8-------------------6--6--6--6--6--6--|
D|-6-6-6-6-6-6-6-6-10-10-10-10-8-8-8-8-9--9--9--9--9--9--6--6--6--6--6--6--|
A|-6-6-6-6-6-6-6-6--8--8--8--8-6-6-6-6-9--9--9--9--9--9--4--4--4--4--4--4--|
E|-4-4-4-4-4-4-4-4---------------------7--7--7--7--7--7--------------------|
Guitar 2:
e|--------------------------------------------------------------------|
B|--------------------------------------------------------------------|
G|-----------------X-X--10--X-X 8-------------------6--6--6--6--6--6--|
D|-6-6-6-6-6-6-6-6-X-X--10--X-X-8-9--9--9--9--9--9--6--6--6--6--6--6--|
A|-6-6-6-6-6-6-6-6-X-X---8--X-X-6-9--9--9--9--9--9--4--4--4--4--4--4--|
E|-4-4-4-4-4-4-4-4----------------7--7--7--7--7--7--------------------|
					
Guitar 1:
e|-4----------------3----------------2-------------------------------------------------|
B|-4----------------4----------------2-------------------------------------------------|
G|-5----------------5----------------3---------------------------------8-8-8-8-8-8-8-8-|
D|-6----------------5----------------4-----------------4-4-4-4-4-4-4-4-8-8-8-8-8-8-8-8-|
A|-6----------------3----------------4-----------------4-4-4-4-4-4-4-4-6-6-6-6-6-6-6-6-|
E|-4---------------------------------2-----------------2-2-2-2-2-2-2-2-----------------|
Guitar 2:
e|-------------------------------------------------------------------------------------|
B|-------------------------------------------------------------------------------------|
G|---------------------------------------------------------------------8-8-8-8-8-8-8-8-|
D|-----------------------------------------------------4-4-4-4-4-4-4-4-8-8-8-8-8-8-8-8-|
A|-----------------------------------------------------4-4-4-4-4-4-4-4-6-6-6-6-6-6-6-6-|
E|-----------------------------------------------------2-2-2-2-2-2-2-2-----------------|

Guitar 1:
e|-4----------------3------------------------------------|
B|-4----------------4------------------------------------|
G|-5----------------5------------------------------------|
D|-6----------------5------------------------------------|
A|-6----------------3------------------------------------|
E|-4-----------------------------------------------------|

Guitars 1 & 2:
e|-------------------------------------------------|
B|-------------------------------------------------|
G|-6-6-6-6-6-6-6-6-8-8-8-8-8-8-8-8-8-8-8-8-8-8-8-8-|
D|-6-6-6-6-6-6-6-6-8-8-8-8-8-8-8-8-8-8-8-8-8-8-8-8-|
A|-4-4-4-4-4-4-4-4-6-6-6-6-6-6-6-6-6-6-6-6-6-6-6-6-|
E|-------------------------------------------------|

Guitar 1:
e|--------------------------------------------------------------------|
B|--------------------------------------------------7--7--7--9--9--9--|
G|-----------------10-10-10--8-8-8------------------4--4--4--6--6--6--|
D|-6-6-6-6-6-6-6-6-10-10-10--8-8-8--6-6-6-6-6-6-6-6-------------------|
A|-6-6-6-6-6-6-6-6--8--8--8--6-6-6--6-6-6-6-6-6-6-6-------------------|
E|-4-4-4-4-4-4-4-4------------------4-4-4-4-4-4-4-4-------------------| x2
Guitar 2:
e|-------------------------------------------------------------------|
B|-------------------------------------------------------------------|
G|-----------------X-X--10--X-X 8---------------------------6--6--6--|
D|-6-6-6-6-6-6-6-6-X-X--10--X-X-8--6-6-6-6-6-6-6-6-9--9--9--6--6--6--|
A|-6-6-6-6-6-6-6-6-X-X---8--X-X-6--6-6-6-6-6-6-6-6-9--9--9--4--4--4--|
E|-4-4-4-4-4-4-4-4-----------------4-4-4-4-4-4-4-4-7--7--7-----------| x2

Guitar 1:
e|-----------------------------------------------------------------------------------|
B|-----------------------------------------------------------------------------------|
G|----------------------------------13----13--12----12--11----11--10----10-----------|
D|-6--------------------------------13----13--12----12--11----11--10-10-10-10--------|
A|-6--------------------------------11----11--10----10---9-----9---8-10--8-10--------|
E|-4------------------------------------------------------------------8-----8--------|
Guitar 2:
e|-----------------------------------------------------------------------|
B|-----------------------------------------------------------------------|
G|-----------------------------------------------------------------------|
D|-6---------------------------------------------------------------------|
A|-6---------------------------------------------------------------------|
E|-4---------------------------------------------------------------------|

Guitars 1 & 2:
e|------------------|
B|------------------|
G|------------------|
D|-6----------------|
A|-6----------------|
E|-4----------------|


| /  slide up
| \  slide down
| h  hammer-on
| p  pull-off
| ~  vibrato
| +  harmonic
| x  Mute note
===============================================================================
comments
We did not receive enough feedback on this tab! Please rate:
print report bad tab
1 2 3 4 5
I want to post or [tab]
guest
You may want to rate the tab now too:
select rating
Please do not post tabs as comments. Select "correction" instead!