Oops, an error
Loading. Please wait.

Itll Be Ok Tab

570 views 1 this week
no commentswrite comment
1 2 3 4 5
please rate
add to favorites launch autoscroll
font size
0
reset
Autoscroll
+/-
esc
set tempo
stop
Contributor
WARNING: You are trying to view
                                    content from Ultimate-Guitar.com
                                    in an unauthorized application,
                                    which is prohibited.

                                    Please use an official Ultimate
                                    Guitar Tabs application for iPhone,
                                    iPad or Android to access legitimate
                                    chords, guitar, bass, and drum tabs
                                    from Ultimate-Guitar.com database.

                                    Type "ultimate guitar tabs" in Apple
                                    App Store's or Android Market's
                                    search to find the application.
----------------------------------------------------------------------------
It'll Be OK
----------------------------------------------------------------------------


e-------------------------------------------------------|
B-------------------------------------------------------|
G--4-4-----4-4-----4-4----4-4------2-2---2-2---2---2----|
D------4-4-----4-4-----4-4----4-4------4-----4---4---4--|
A-------------------------------------------------------|
E-------------------------------------------------------|


e----------------------|
B----------------------|
G-------7-------7--9---|
D---7---7----7--7--9---|
A---7---5----7--5--7---|
E---5--------5---------|

e------------------------------------------------------------------|
B------------------------------------------------------------------|
G--------------------7-7-7-7--4-4-4-4---------------------7-7-7-7--|
D--4-4-4-4--2-2-2-2--7-7-7-7--4-4-4-4---4-4-4-4--2-2-2-2--7-7-7-7--|
A--4-4-4-4--2-2-2-2--5-5-5-5--2-2-2-2---4-4-4-4--2-2-2-2--5-5-5-5--|
E--2-2-2-2--0-0-0-0---------------------2-2-2-2--0-0-0-0-----------|


e-------------------------------------------------------|
B-------------------------------------------------------|
G--4-4-----4-4-----4-4----4-4------2-2---2-2---2---2----|
D------4-4-----4-4-----4-4----4-4------4-----4---4---4--|
A-------------------------------------------------------|
E-------------------------------------------------------|


e----------------------|
B----------------------|
G-------7-------7--9---|
D---7---7----7--7--9---|
A---7---5----7--5--7---|
E---5--------5---------|

e------------------------------------------------------------------|
B------------------------------------------------------------------|
G--------------------7-7-7-7--4-4-4-4---------------------7-7-7-7--|
D--4-4-4-4--2-2-2-2--7-7-7-7--4-4-4-4---4-4-4-4--2-2-2-2--7-7-7-7--|
A--4-4-4-4--2-2-2-2--5-5-5-5--2-2-2-2---4-4-4-4--2-2-2-2--5-5-5-5--|
E--2-2-2-2--0-0-0-0---------------------2-2-2-2--0-0-0-0-----------|


e-------------------------------------------------------|
B-------------------------------------------------------|
G--4-4-----4-4-----4-4----4-4------2-2---2-2---2---2----|
D------4-4-----4-4-----4-4----4-4------4-----4---4---4--|
A-------------------------------------------------------|
E-------------------------------------------------------|


e----------------------------------------------|
B----------------------------------------------|
G-----7----------------------------------------|
D--7--7---7-7-7-7--5-5-5-5--4-4-4-4-4-4-4-4----|
A--7--5---7-7-7-7--5-5-5-5--4-4-4-4-4-4-4-4----|
E--5------5-5-5-5--3-3-3-3--2-2-2-2-2-2-2-2----|


e-----------|
B-----------|
G--7---9----|
D--7---9----|
A--5---7----|
E-----------|

e--------------------------------------------------------------------|
B--------------------------------------------------------------------|
G--------------------------------4-4-4-4-----------------------------|
D-----7-7-7-7--5-5-5-5--4-4-4-4--4-4-4-4--7-7-7-7--5-5-5-5--4-4-4-4--|
A-----7-7-7-7--5-5-5-5--4-4-4-4--2-2-2-2--7-7-7-7--5-5-5-5--4-4-4-4--|
E-----5-5-5-5--3-3-3-3--2-2-2-2-----------5-5-5-5--3-3-3-3--2-2-2-2--|


e-------------------------------------------------------|
B-------------------------------------------------------|
G--4-4-----4-4-----4-4----4-4------2-2---2-2---2---2----|
D------4-4-----4-4-----4-4----4-4------4-----4---4---4--|
A-------------------------------------------------------|
E-------------------------------------------------------|


e------------------------------------------------------------------------|
B--10-10-10-10-10--12-10--7----------------------------------------------|
G---------------------------9--11p9----9h11p9----------------------------|
D-----------------------------------12--------12----11-12-14-14-14-14-16-|
A------------------------------------------------12----------------------|
E------------------------------------------------------------------------|

e-----------------------------------------------------------------------|
B-----------------------------------------------------------------------|
G------------14-14h16h18-18-16-14h16p14-----------14--14-14-16-18-16-14-|
D--16-16-16-----------------------------16--14h16-----------------------|
A-----------------------------------------------------------------------|
E-----------------------------------------------------------------------|

e-----------------------------------------------------------------------|
B-----------------------------------------------------------------------|
G---------------------------16----16----16--------14-16-16/18-16-14-----|
D----12-12-14-14/16------16----16----16-----16-16-------------------16--|
A-16----------------14--------------------------------------------------|
E-----------------------------------------------------------------------|

e---------------------------------------------------------------------|
B---------------------------------------------------------------------|
G---------------------16-16-------16-16-------16-16-------16-16-------|
D--12-12-14-14/16--16-------16-16-------16-16-------16-16-------16-16-|
A---------------------------------------------------------------------|
E---------------------------------------------------------------------|

e---------------------------------------------------|
B---------------------------------------------------|
G--14-14-------14-14-------14-14-------14-14--------|
D--------16-16-------16-16-------16-16-------16-16--|
A---------------------------------------------------|
E---------------------------------------------------|

e----------------------|
B----------------------|
G-------7-------7--9---|
D---7---7----7--7--9---|
A---7---5----7--5--7---|
E---5--------5---------|

e--------------------------------------|
B--------------------------------------|
G--------------------7-7-7-7--4-4-4-4--|
D--4-4-4-4--2-2-2-2--7-7-7-7--4-4-4-4--|
A--4-4-4-4--2-2-2-2--5-5-5-5--2-2-2-2--|
E--2-2-2-2--0-0-0-0--------------------|

e--------------------------------------|
B--------------------------------------|
G--------------------7-7-7-7--4-4-4-4--|
D--4-4-4-4--2-2-2-2--7-7-7-7--4-4-4-4--|
A--4-4-4-4--2-2-2-2--5-5-5-5--2-2-2-2--|
E--2-2-2-2--0-0-0-0--------------------|


e----------------------------|
B----------------------------|
G-------------6-6-6----------| x3
D--5-x-5-x-5--6-6-6-7-7-7----|
A--5-x-5-x-5--4-4-4-7-7-7----|
E--3-x-3-x-3--------5-5-5----|


e-------------------------------------------------------|
B-------------------------------------------------------|
G--4-4-----4-4-----4-4----4-4------2-2---2-2---2---2----|
D------4-4-----4-4-----4-4----4-4------4-----4---4---4--|
A-------------------------------------------------------|
E-------------------------------------------------------|


e----------------------------------------------|
B----------------------------------------------|
G-----7----------------------------------------|
D--7--7---7-7-7-7--5-5-5-5--4-4-4-4-4-4-4-4----|
A--7--5---7-7-7-7--5-5-5-5--4-4-4-4-4-4-4-4----|
E--5------5-5-5-5--3-3-3-3--2-2-2-2-2-2-2-2----|


e-----------------------|
B-----------------------|
G--7---9-9-9-9-9-9-9-9--|
D--7---9-9-9-9-9-9-9-9--|
A--5---7-7-7-7-7-7-7-7--|
E-----------------------|


e----------------------------------------|
B----------------------------------------|
G--------------------------------4-4-4-4-| x4
D-----7-7-7-7--5-5-5-5--4-4-4-4--4-4-4-4-|
A-----7-7-7-7--5-5-5-5--4-4-4-4--2-2-2-2-|
E-----5-5-5-5--3-3-3-3--2-2-2-2----------|

e--------------------------------------------------------------------|
B--------------------------------------------------------------------|
G--------------------------------4-4-4-4-----------------------------|
D-----7-7-7-7--5-5-5-5--4-4-4-4--4-4-4-4--7-7-7-7--5-5-5-5--4-4-4-4--|
A-----7-7-7-7--5-5-5-5--4-4-4-4--2-2-2-2--7-7-7-7--5-5-5-5--4-4-4-4--|
E-----5-5-5-5--3-3-3-3--2-2-2-2-----------5-5-5-5--3-3-3-3--2-2-2-2--|


e-------------------------------------------------------------------|
B-------------------------------------------------------------------|
G--4-4-----4-4-----4-4----4-4------2-2---2-2-----2-4-2----------2---|
D------4-4-----4-4-----4-4----4-4------4-----4---------5-4-2----2---|
A------------------------------------------------------------4--0---|
E-------------------------------------------------------------------|
comments
We did not receive enough feedback on this tab! Please rate:
print report bad tab
1 2 3 4 5
I want to post or [tab]
guest
You may want to rate the tab now too:
select rating
Please do not post tabs as comments. Select "correction" instead!