Oops, an error
Loading. Please wait.

Akeldama Tab

ver1
ver1

Whole song

Interactive

More versions @911Tabs.com
8,160 views 1 this week
2 commentsread comments
1 2 3 4 5
excellent!
x 2
Autoscroll
+/-
esc
set tempo
stop
Contributor
Difficulty
advanced
Hey! There's an official Ultimate Guitar app which is ideal
for learning songs when you're away from computer. Get the app
WARNING: You are trying to view
                                    content from Ultimate-Guitar.com
                                    in an unauthorized application,
                                    which is prohibited.

                                    Please use an official Ultimate
                                    Guitar Tabs application for iPhone,
                                    iPad or Android to access legitimate
                                    chords, guitar, bass, and drum tabs
                                    from Ultimate-Guitar.com database.

                                    Type "ultimate guitar tabs" in Apple
                                    App Store's or Android Market's
                                    search to find the application.
#----------------------------------PLEASE NOTE---------------------------------#
#This file is the author's own work and represents their interpretation of the #
#song. You may only use this file for private study, scholarship, or research. #
#------------------------------------------------------------------------------#

AKELDAMA
As recorded by The Faceless
(From the 2006 Album AKELDAMA)

Transcribed by MC
	

Words by Derek Rydquist Music by The Faceless
Arranged by The Faceless

D5
x 5 7 7 x x
	
G5
x 10 12 12 x x
	
F
x 8 x 10 x x
	
Eb
x 6 x 8 x x

Gtr I (C G C F A D) - 'Michael Keene'
Gtr II (C G C F A D) - 'Steve Jones I'
Gtr III (C G C F A D) - 'Steve Jones II'
Gtr IV (C G C F A D) - 'Michael Sherer I'
Gtr V (C G C F A D) - 'Michael Sherer II'
Gtr VI (C G C F A D) - 'Michael Sherer III'

 keldama
  Progressive Metal Q=160
  N.C.
 4/4
  Gtrs I, II
  Wx2
|--------|
|--------|
|--------|
|--------|
|--------|
|--------|


 5/16             7/8
  Gtr I
                                             ~~
   S  S  S  S  S    E  E  E  E E  E  E    E  H        S  S  S  S
|----------------|---------------------|-------------------------|
|----------------|---------------------|-------------------------|
|----------------|-11-14-12-11-9s11-11-|-11h13-------14-13-11----|
|----------12-14-|---------------------|----------------------14-|
|-12-14-15-------|---------------------|-------------------------|
|----------------|---------------------|-------------------------|
|
| Gtr II
|  Q           S    E  E  E  E E  E  E    E  E E E E  E     E
|----------------|---------------------|-------------------------|
|----------------|-------------3-------|-----------5-------------|
|----------------|--------0-------0----|-------6------6----------|
|----------------|-----4-----4-------4-|-----7---7----------7----|
|----------------|-/2------------------|--4----------------------|
|----------------|---------------------|-------------------------|


                   ~~~~~~~~~~~~~~~~~~~~~~~~
   S  S  S  S  E  +H                   H..
|-----------------------------------|---------------------------|
|-----------------------------------|---------------------------|
|-----------------------------------|---------------------------|
|-13-11-----------------------------|---------------------------|
|-------14-12-11-(11)---------------|-12------------------------|
|-----------------------------------|---------------------------|
|
|                     |--3---|                   |--3---|
|  E     E     E   E  S  S   S  E E    E   E E E S  S   S  E E
|-----------------------------------|---------------------------|
|-----------------------------------|---------------------------|
|--------------8---9--8h=9p==8------|--------8-9-8h=9p==8-------|
|--------------9---9--9-(9)-(9)-9-9-|--------9-9-9-(9)-(9)-9-9--|
|--------9------------------------9-|------9-----------------9--|
|--6--------------------------------|--7------------------------|


 5/8
      |--3--|              |--3--|  |3-|
   E  S  S  S  Q.          S  S  S  S  E  +Q.
|-------------12--------|--------------------------|
|----------13-----------|-13-----------------------|
|-------14--------------|----14--------------------|
|----14-----------------|-------14-----------------|
|-----------------------|----------15-12-(12)------|
|-----------------------|--------------------------|
|
|  E  E        E   E  E    E        E      E  E  E
|-----------------------|--------------------------|
|-----------------------|------------------7-----7-|
|--------------------16-|------------------9-----9-|
|-------------14-----14-|-----------------10----10-|
|----12-----------12----|-----------9------------9-|
|-10--------------------|--7------------------7----|


 7/8
     |--3--|                      |--3--|
   S S S   S S E  E E  E   E    S S S   S S E E E  E   E
|--------------7--------------|-------------5-------------|
|----------8-8---10-8-10--12--|---------6-6---8-6--8--10--|
|------7----------------------|-----5---------------------|
|----9------------------------|---7-----------------------|
|-10--------------------------|-8-------------------------|
|-----------------------------|---------------------------|
|
|  E     E     E  E E +E   E    E     E     E E E +E   E
|-------------------5-(5)-(5)-|-----------------3-(3)-(3)-|
|-------------------5-(5)-(5)-|-----------------3-(3)-(3)-|
|-----------------------------|---------------------------|
|--------------9-----------0--|-------------7----------0--|
|--------7--------7-----------|-------5-------5-----------|
|--5--------------------------|-3-------------------------|


                                                                               |--3--|
  S S S S S S  S  S S     S     S S S S   S  S  S  S  S  S  S  S  S  S  S   S  S  S  S
|---------------------------------------|----------------------------------------------|
|-----7-8-7---------7-----8-----7-------|---------10-12-13-12-10--------------------12-|
|-8-9-------9--8--9---------------9-8---|-9-11-12----------------12-11--9-----12-14----|
|-------------------------------------9-|----------------------------------12----------|
|---------------------------------------|----------------------------------------------|
|---------------------------------------|----------------------------------------------|
|
|                   |---3----|
| E   E   E    E    S  S     S  E   E     E     E     E     E     E    +E      E
|---------------------------------------|----------------------------------------------|
|---------------------------------------|-------------5-----------5----(5)-----5-------|
|---------4----5----4--5-----4----------|-------------5-----------5----(5)-----5-------|
|---------4---(4)---4-(4)---(4)-4---4---|-------------3-----------3----(3)-----3-------|
|-----6-----------------------------6---|-3-----3-----------3--------------------------|
|-4-------------------------------------|-3-----3-----------3--------------------------|


   |-----------------------------3-----------------------------|
   S  S  S  S  S  S  S  S  S  S  S  S  S  S  S  S  S  S  S  S  S
|----------------------12-14-15-12----------12-17-12----------12----|
|-13-12-------12-13-15-------------15-13-15----------15-13-15-------|
|-------12-14-------------------------------------------------------|
|-------------------------------------------------------------------|
|-------------------------------------------------------------------|
|-------------------------------------------------------------------|
|
|  E        E        E        E        E        E        E
|-------------------------------------------------------------------|
|--------------------5-----------------5--------5--------5----------|
|--------------------5-----------------5--------5--------5----------|
|--------------------5-----------------5--------5--------5----------|
|--4--------4-----------------4-------------------------------------|
|--4--------4-----------------4-------------------------------------|


   ~~                     ~~~~
   H           E  E  E    H..
|-15-------------14-15-|-16---------------|
|----------------------|------------------|
|----------------------|------------------|
|----------------------|------------------|
|----------------------|------------------|
|----------------------|------------------|
|
|  E E E  a  E E  E  E    E   E E E E E E
|----------------------|------------------|
|----------------------|------------9-----|
|-----------------7----|--------9-----9---|
|------7-(7)s9-------9-|------9---9-----9-|
|----5-----------------|------------------|
|--5-----------5-------|--6---------------|


  S E.   Q    Q.       S S S S S S S S S S S S S S
|--------------------|-----------------------------|
|--------------------|-----------------------------|
|--------------------|-7-6-----------7-6-----------|
|-7h9----7---10------|-----9-7-5---------9-7-5-----|
|--------------------|-----------9-7-----------9-7-|
|--------------------|-----------------------------|
|
| E    E E E  E  E E   E   E   E   E   E   E   E
|--------------------|-----------------------------|
|-------------1------|-----------------3-----------|
|--------0-------0---|---------4-----------4-------|
|------2---2-------2-|-----5-------5-----------5---|
|-0------------------|-2---------------------------|
|--------------------|-----------------------------|


             |--3---|
  S E.   Q   S  S   S  +Q      S S S S S S S S S     S     S S S S
|----------------------------|---------------------------------------|
|----------------------------|---------------------------------------|
|------------6h=7p==6--(6)---|-7-6-----------7-6---------------------|
|-7h9----7-------------------|-----9-7-5-------------9-----7-5-------|
|----------------------------|-----------9-7-------------------9-7---|
|----------------------------|---------------------------------------|
|
|            |--3---|                          |---3----|
| E    E E E S  S   S   E  E   E   E   E   E   S  S     S  E   E
|----------------------------|---------------------------------------|
|----------------------------|---------------------------------------|
|--------6-7-6h=7p==6--------|---------6---7---6h=7p====6------------|
|--------7-7-7-(7)-(7)--7--7-|---------7---7---7-(7)---(7)-7---7-----|
|------7-------------------7-|-----7---------------------------7-----|
|-6--------------------------|-5-------------------------------------|


 5/8                             7/8
  E  E  E  E  E    E E E S S  E   H       Q.           E E  E  E  E  E   E
|------------10-|---------------|--------------------|---------------------|
|---------10----|----------8-10-|--------------------|-----10s16----16--17-|
|----7--9-------|------7-9------|-9-------7----------|-7-8-------14--------|
|-8-------------|----8----------|--------------------|---------------------|
|---------------|-10------------|--------------------|---------------------|
|---------------|---------------|--------------------|---------------------|
|
| E  E  E  E  E    E E E E    E   E E E E E  +E   E    E E  E  E  E  E   E
|---------------|---------------|---------3--(3)-(3)-|------------1-(1)----|
|---------------|------5------5-|---------3--(3)-(3)-|------------1-(1)----|
|------------14-|------7------7-|--------------------|------3--------3-----|
|------12----12-|------8------8-|-----7-----------0--|---------------------|
|---10----10----|----7--------7-|---5---5------------|---3-----3---------3-|
|-8-------------|--5-----5------|-3------------------|-1-------------------|


    ~~~~~
   +H..                          S  S  S  S  S  S  S  S  S  S  S   S  S   a   S
|-----------------------------|----------------10-11-10-------------------------|
|-(17)------------------------|-------------11----------11----------------------|
|-----------------------------|----------12----------------12-------------------|
|-----------------------------|-------12----------------------12----------------|
|-----------------------------|-10-13-----------------------------13-10-(10)s13-|
|-----------------------------|-------------------------------------------------|
|
|               |--3---|
|   E   E E  E  S  S   S  E E    E     E     E     E     E    +E      E
|-----------------------------|-------------------------------------------------|
|-----------------------------|--------------3-----------3----(3)-----3---------|
|---------2--3--2--3---2------|--------------3-----------3----(3)-----3---------|
|---------2-(2)-2-(2)-(2)-2-2-|--------------1-----------1----(1)-----1---------|
|-------4-------------------4-|--1-----1-----------1----------------------------|
|---2-------------------------|--1-----1-----------1----------------------------|


   S  S  S  S  S  S  S  S  S  S  S  S  S  S
|----------------------------------13-15-17-|
|-------------------------13-15-17----------|
|----------------12-14-15-------------------|
|-------12-14-15----------------------------|
|-13-15-------------------------------------|
|-------------------------------------------|
|
|  E     E     E     E     E     E     E
|-------------------------------------------|
|--------------3-----------3-----3-----3----|
|--------------3-----------3-----3-----3----|
|--------------3-----------3-----3-----3----|
|--2-----2-----------2----------------------|
|--2-----2-----------2----------------------|


                     ~~~~~~~~~              ~~~~
   S  Q..            Q    +E     Q    Q     Q.
|-----------------------------|------20---/24------|
|-15s17-------------15---(15)-|-19-----------------|
|-----------------------------|--------------------|
|-----------------------------|--------------------|
|-----------------------------|--------------------|
|-----------------------------|--------------------|
|
|  E      E E  a  E  E E   E     E E  E E   E  E E
|-----------------------------|--------------------|
|-----------------------------|-------------7------|
|----------------------5------|-------7--------7---|
|-----------5-(5)s7--------7--|----7----7--------7-|
|---------3-------------------|--------------------|
|--3-----------------3--------|--4-----------------|


    Gtr IV
    a H            +E   q         H..
||-----------------------------|---------------------------|
||o----------------------------|---------------------------|
||--5h7------------(7)--5------|---------------------------|
||-----------------------------|--6------------------------|
||o----------------------------|---------------------------|
||-----------------------------|---------------------------|
|
|   Gtr V
|     <
|     H..                        +H..
||-----------------------------|---------------------------|
||o---9------------------------|-(9)-----------------------|
||----8------------------------|-(8)-----------------------|
||----6------------------------|-(6)-----------------------|
||o----------------------------|---------------------------|
||-----------------------------|---------------------------|
|
|     Gtrs I, II
|     Q     E   E   E   E   E     Q     E   E   E   E   E
||-----------------------------|---------------------------|
||o-----------------9----------|----------------9----------|
||----------8-----------8------|--------8-----------8------|
||----6----(6)--6--(6)-(6)--6--|--6----(6)--6--(6)-(6)--6--|
||o---6----(6)-(6)-(6)-(6)-(6)-|--6----(6)-(6)-(6)-(6)-(6)-|
||----6----(6)-(6)-(6)-(6)-(6)-|--6----(6)-(6)-(6)-(6)-(6)-|


  a  H            +E   q          H..
|-----------------------------|-----------------------------||
|-----------------------------|----------------------------o||
|-5h=7------------(7)--5------|-----------------------------||
|-----------------------------|---7-------------------------||
|-----------------------------|----------------------------o||
|-----------------------------|-----------------------------||
|
|    <
|    H..                         +H..
|-----------------------------|-----------------------------||
|---10------------------------|-(10)-----------------------o||
|----9------------------------|--(9)------------------------||
|----7------------------------|--(7)------------------------||
|-----------------------------|----------------------------o||
|-----------------------------|-----------------------------||
|
|    Q     E   E   E   E   E      Q     E   E   E   E   E
|-----------------------------|-----------------------------||
|-----------------10----------|----------------10----------o||
|----------9-----------9------|---------9-----------9-------||
|----7----(7)--7--(7)-(7)--7--|---7----(7)--7--(7)-(7)--7---||
|----7----(7)-(7)-(7)-(7)-(7)-|---7----(7)-(7)-(7)-(7)-(7)-o||
|----7----(7)-(7)-(7)-(7)-(7)-|---7----(7)-(7)-(7)-(7)-(7)--||


  e   e e e E e e    e   Q.     E E  E
|-----------------|---------------------|
|---------6-8-----|--6---------------6--|
|-----5-7-------7-|------5--------7-----|
|-6-----------6---|---------------------|
|-----------------|---------------------|
|-----------------|---------------------|
|
| <
| H..               +H..
|-----------------|---------------------|
|-9---------------|-(9)-----------------|
|-8---------------|-(8)-----------------|
|-6---------------|-(6)-----------------|
|-----------------|---------------------|
|-----------------|---------------------|
|
| E   E E Q   E E    E   E  E Q   E +E
|-----------------|---------------------|
|-----------------|---------------------|
|-----------------|---------------------|
|-6-----6-----6---|--6------6-----6-(6)-|
|-6-----6-----6---|--6------6-----6-(6)-|
|-6-----6-----6---|--6------6-----6-(6)-|


                            ~~~~~~~~~~~
   E   +E  E Q  E E     E   H      +E   E
|---------------4-5-|---7---8------(8)-----|
|--5---(5)----------|----------------------|
|----------7--------|----------------------|
|-------------------|----------------------|
|-------------------|----------------------|
|-------------------|----------------------|
|
|  <
|  H..                 +H..
|-------------------|----------------------|
|-10----------------|-(10)-----------------|
|--9----------------|--(9)-----------------|
|--7----------------|--(7)-----------------|
|-------------------|----------------------|
|-------------------|----------------------|
|
|  E    E  E Q  E E     E   E E Q   E  +E
|-------------------|----------------------|
|-------------------|----------------------|
|-------------------|----------------------|
|--7-------7----7---|---7-----7-----7--(7)-|
|--7-------7----7---|---7-----7-----7--(7)-|
|--7-------7----7---|---7-----7-----7--(7)-|


   E   e e  e  E  E e    e   e  e  E  E  E  E
|------7-8-10-11-10-8-|--7---8-10-11-10-11-13--|
|-(9)-----------------|------------------------|
|---------------------|------------------------|
|---------------------|------------------------|
|---------------------|------------------------|
|---------------------|------------------------|
|
|  <
|  H..                  +H..
|---------------------|------------------------|
|--9------------------|-(9)--------------------|
|--8------------------|-(8)--------------------|
|--6------------------|-(6)--------------------|
|---------------------|------------------------|
|---------------------|------------------------|
|
|  E   E E  Q     E E    E   E  E  Q     E +E
|---------------------|------------------------|
|---------------------|------------------------|
|---------------------|------------------------|
|--6-----6--------6---|--6------6--------6-(6)-|
|--6-----6--------6---|--6------6--------6-(6)-|
|--6-----6--------6---|--6------6--------6-(6)-|


                                     >
   ~~~~               ~~~~~
   H.           E     H.            +E
|-12--------------|---------------------|
|-----------------|--12------------(12)-|
|-----------------|---------------------|
|-----------------|---------------------|
|-----------------|---------------------|
|-----------------|---------------------|
|
|  <
|  H..               +H..
|-----------------|---------------------|
|-10--------------|-(10)----------------|
|--9--------------|--(9)----------------|
|--7--------------|--(7)----------------|
|-----------------|---------------------|
|-----------------|---------------------|
|
|  E   E E Q  E E     E   E E Q  E  +E
|-----------------|---------------------|
|-----------------|---------------------|
|-----------------|---------------------|
|--7-----7----7---|---7-----7----7--(7)-|
|--7-----7----7---|---7-----7----7--(7)-|
|--7-----7----7---|---7-----7----7--(7)-|


 12/8
                                  ~~~~
   E  E  E  E  E  E  E  E  E  E  +Q       E    E  E  E  E  E  E  E  E  E  E  E
|----------------12-14-15-14-11-(11)----|-----18-14----------------14----------|
|-------------12------------------------|-----------15----------15----15-15-16-|
|----------12---------------------------|--------------15----15----------------|
|-------13------------------------------|-----------------16-------------------|
|----15---------------------------------|--------------------------------------|
|---------------------------------------|--------------------------------------|
|
| Gtrs I, II
|  PM|      PM    PM|      PM             PM--|      PM    PM|      PM
|  E  E  E  E  E  E  E  E  E  E   E   E   S S  E  E  E  E  E  E  E  E  E  E  E
|---------------------------------------|--------------------------------------|
|---------------------------------------|---------7-----7--------7-----7--7--7-|
|-------11----11-------11----11--11--11-|---------5-----5--------5-----5--5--5-|
|--------9-----9--------9-----9---9---9-|---------4-----4--------4-----4--4--4-|
|-10-10-10-10-10-10-10-10-10-10--10--10-|-6-6--6--6--6--6--6--6--6--6--6--6--6-|
|-10-10-10-10-10-10-10-10-10-10--10--10-|--------------------------------------|


 7/8
  Gtr IV
   Q      H          E    +Q      E    +H
|-10-------------------|---------------------------|
|--------11------------|---------------------------|
|-------------------11-|-(11)----------------------|
|----------------------|---------12---(12)---------|
|----------------------|---------------------------|
|----------------------|---------------------------|
|
| Gtr V
|  <
|  H..                    +H..
|----------------------|---------------------------|
|--9-------------------|--(9)----------------------|
|--8-------------------|--(8)----------------------|
|--6-------------------|--(6)----------------------|
|----------------------|---------------------------|
|----------------------|---------------------------|
|
| Gtrs I, II
|  PM-----------------------------------------------
|  E   E  S E E E S  E     E   E  S E      E E S E
|----------------------|---------------------------|
|----------------------|---------------------------|
|----------------------|---------------------------|
|----------------------|---------------------------|
|--6---6--6-6-6-6-6--6-|---6---6--6-6------6-6-6-6-|
|--6---6--6-6-6-6-6--6-|---6---6--6-6------6-6-6-6-|


   Q.         H             E    E  E   E    Q.
|-12--------------------|-----------------------------|
|------------13---------|--10---12-13---9s==10--------|
|-----------------------|-----------------------------|
|-----------------------|-----------------------------|
|-----------------------|-----------------------------|
|-----------------------|-----------------------------|
|
|  <
|  H..                     +H..
|-----------------------|-----------------------------|
|-10--------------------|-(10)------------------------|
|--9--------------------|--(9)------------------------|
|--7--------------------|--(7)------------------------|
|-----------------------|-----------------------------|
|-----------------------|-----------------------------|
|
|---------------------------------------------------|
|  E   E S E    E E S E     E    E  S E   E     E S E
|-----------------------|-----------------------------|
|-----------------------|-----------------------------|
|-----------------------|-----------------------------|
|-----------------------|-----------------------------|
|--7---7-7-7----7-7-7-7-|---7----7--7-7---7-----7-7-7-|
|--7---7-7-7----7-7-7-7-|---7----7--7-7---7-----7-7-7-|


                ~~
   E    E  E    Q      E    E    E    E E    E    E    E    E
|------11---------------------|-------------------------------|
|-12------12------------------|-------------------------------|
|--------------12-------------|-12----------------------------|
|---------------------13---10-|---------9---10---12---13---12-|
|-----------------------------|------10-----------------------|
|-----------------------------|-------------------------------|
|
|  <
|  H..                          +H..
|-----------------------------|-------------------------------|
|--9--------------------------|-(9)---------------------------|
|--8--------------------------|-(8)---------------------------|
|--6--------------------------|-(6)---------------------------|
|-----------------------------|-------------------------------|
|-----------------------------|-------------------------------|
|
|  PM----------------------------------------------------------
|  E    E  S E    E E    S  E    E    E S E    E    E    S  E
|-----------------------------|-------------------------------|
|-----------------------------|-------------------------------|
|-----------------------------|-------------------------------|
|-----------------------------|-------------------------------|
|--6----6--6-6----6-6----6--6-|--6----6-6-6----6----6----6--6-|
|--6----6--6-6----6-6----6--6-|--6----6-6-6----6----6----6--6-|


                                   ~~~~
   E   E  E    E    E    E    E    H.               +E
|-------------------------------|------------------------|
|-------------------------------|------------------------|
|-----------------------10------|-13---------------(13)\-|
|-10---9-10---12---13--------10-|------------------------|
|-------------------------------|------------------------|
|-------------------------------|------------------------|
|
| +H..                            +H..
|-------------------------------|------------------------|
|-(9)---------------------------|-(9)--------------------|
|-(8)---------------------------|-(8)--------------------|
|-(6)---------------------------|-(6)--------------------|
|-------------------------------|------------------------|
|-------------------------------|------------------------|
|
|--------------------------------------------------|
|  E   E  S E    E    E    S  E    E   E S E E E S   E
|-------------------------------|------------------------|
|-------------------------------|------------------------|
|-------------------------------|------------------------|
|-------------------------------|------------------------|
|--6---6--6-6----6----6----6--6-|--6---6-6-6-6-6-6---6---|
|--6---6--6-6----6----6----6--6-|--6---6-6-6-6-6-6---6---|


  Gtrs I, II
   E E E E E E E   E E E E E E E
|----------------|---------------|
|----------3-----|---------5-----|
|------0-----0---|-----6-----6---|
|----4---4-----4-|---7---7-----7-|
|-/2-------------|-4-------------|
|----------------|---------------|


          |--3---|                |--3---|
  E E E E S  S   S  E E   E E E E S  S   S  E E
|-----------------------|------------------------|
|-----------------------|------------------------|
|-----8-9-8h=9p==8------|-----8-9-8h=9p==8-------|
|-----9-9-9-(9)-(9)-9-9-|-----9-9-9-(9)-(9)-9-9--|
|---9-----------------9-|---9-----------------9--|
|-6---------------------|-7----------------------|


 5/8                            7/8
   E  E  E  E  E   E E  E E  E   E E E E E +E   E    E E E E E +E   E
|----------------|-------------|---------5-(5)-(5)-|---------3-(3)-(3)--|
|----------------|------7----7-|---------5-(5)-(5)-|---------3-(3)-(3)--|
|-------------16-|------9----9-|-------------------|--------------------|
|-------14----14-|-----10---10-|-----9----------0--|-----7----------0---|
|----12----12----|---9-------9-|---7---7-----------|---5---5------------|
|-10-------------|-7------7----|-5-----------------|-3------------------|


            |--3---|
  E E E  E  S  S   S  E E   E E E E E +E  E
|-------------------------|-----------------|
|-------------------------|-----5---5-(5)-5-|
|-----4--5--4--5---4------|-----5---5-(5)-5-|
|-----4-(4)-4-(4)-(4)-4-4-|-----3---3-(3)-3-|
|---6-------------------6-|-3-3---3---------|
|-4-----------------------|-3-3---3---------|


  E E E E E E E   E E E  a  E E E E   E E E E E E E
|---------------|-------------------|----------------|
|-----5---5-5-5-|-------------------|---------9------|
|-----5---5-5-5-|---------------7---|-----9-----9----|
|-----5---5-5-5-|-----7-(7)s9-----9-|---9---9-----9--|
|-4-4---4-------|---5---------------|----------------|
|-4-4---4-------|-5-----------5-----|-6--------------|


  E E E E E E E   E E E E E E E
|---------------|---------------|
|---------1-----|---------3-----|
|-----0-----0---|-----4-----4---|
|---2---2-----2-|---5---5-----5-|
|-0-------------|-2-------------|
|---------------|---------------|


          |--3---|                |--3---|
  E E E E S  S   S  E E   E E E E S  S   S  E E
|-----------------------|------------------------|
|-----------------------|------------------------|
|-----6-7-6h=7p==6------|-----6-7-6h=7p==6-------|
|-----7-7-7-(7)-(7)-7-7-|-----7-7-7-(7)-(7)-7-7--|
|---7-----------------7-|---7-----------------7--|
|-6---------------------|-5----------------------|


 5/8                         7/8
  E  E  E  E  E   E E E E E   E E E E E +E   E    E E E E E  E  E
|---------------|-----------|---------3-(3)-(3)-|---------1-(1)----|
|---------------|-----5---5-|---------3-(3)-(3)-|---------1-(1)----|
|------------14-|-----7---7-|-------------------|-----3------3-----|
|------12----12-|-----8---8-|-----7----------0--|------------------|
|---10----10----|---7-----7-|---5---5-----------|---3---3-------3--|
|-8-------------|-5-----5---|-3-----------------|-1----------------|


            |--3---|
  E E E  E  S  S   S  E E   E E E E E +E  E
|-------------------------|-----------------|
|-------------------------|-----3---3-(3)-3-|
|-----2--3--2--3---2------|-----3---3-(3)-3-|
|-----2-(2)-2-(2)-(2)-2-2-|-----1---1-(1)-1-|
|---4-------------------4-|-1-1---1---------|
|-2-----------------------|-1-1---1---------|


  E E E E E E E   E E E  a  E E E E   E E E E E E E
|---------------|-------------------|----------------|
|-----3---3-3-3-|-------------------|---------7------|
|-----3---3-3-3-|---------------5---|-----7-----7----|
|-----3---3-3-3-|-----5-(5)s7-----7-|---7---7-----7--|
|-2-2---2-------|---3---------------|----------------|
|-2-2---2-------|-3-----------3-----|-4--------------|


 7/8
  H..         H..         H..         H..
|-----------|-----------|-----------|--------|
|-----------|-----------|-----------|--------|
|-----------|-----------|-----------|--------|
|-----------|-----------|-----------|--------|
|-----------|-----------|-----------|--------|
|-----------|-----------|-----------|--------|


    PM------------------------------------------------------------------|
    E E S E E E S E   E E S E E E S E   E E S E E E S E   E E S E E E S E  4x
||------------------|-----------------|-----------------|------------------||
||o-----------------|-----------------|-----------------|-----------------o||
||------------------|-----------------|-----------------|------------------||
||------------------|-----------------|-----------------|------------------||
||o-6-6-6-6-6-6-6-6-|-6-6-6-6-6-6-6-6-|-7-7-7-7-7-7-7-7-|-7-7-7-7-7-7-7-7-o||
||--6-6-6-6-6-6-6-6-|-6-6-6-6-6-6-6-6-|-7-7-7-7-7-7-7-7-|-7-7-7-7-7-7-7-7--||


 12/8
   PM|      PM    PM|      PM           PM--|   PM  PM|   PM
   E  E  E  E  E  E  E  E  E  E  E  E   S S E E E E E E E E E E E
|-------------------------------------|---------------------------|
|-------------------------------------|-------7---7-----7---7-7-7-|
|-------11----11-------11----11-11-11-|-------5---5-----5---5-5-5-|
|--------9-----9--------9-----9--9--9-|-------4---4-----4---4-4-4-|
|-10-10-10-10-10-10-10-10-10-10-10-10-|-6-6-6-6-6-6-6-6-6-6-6-6-6-|
|-10-10-10-10-10-10-10-10-10-10-10-10-|---------------------------|


 7/8
  PM------------------------------------------------------------------|
  E E S E E E S E   E E S E E E S E   E E S E E E S E   E E S E E E S E
|-----------------|-----------------|-----------------|-----------------|
|-----------------|-----------------|-----------------|-----------------|
|-----------------|-----------------|-----------------|-----------------|
|-----------------|-----------------|-----------------|-----------------|
|-6-6-6-6-6-6-6-6-|-6-6-6-6-6-6-6-6-|-7-7-7-7-7-7-7-7-|-7-7-7-7-7-7-7-7-|
|-6-6-6-6-6-6-6-6-|-6-6-6-6-6-6-6-6-|-7-7-7-7-7-7-7-7-|-7-7-7-7-7-7-7-7-|


  PM------------------------------------------------------------------|
  E E S E E E S E   E E S E E E S E   E E S E E E S E   E E S E E E S E
|-----------------|-----------------|-----------------|------------------|
|-----------------|-----------------|-----------------|------------------|
|-----------------|-----------------|-----------------|------------------|
|-----------------|-----------------|-----------------|------------------|
|-6-6-6-6-6-6-6-6-|-6-6-6-6-6-6-6-6-|-6-6-6-6-6-6-6-6-|-6-6-6-6-6-6-6-6--|
|-6-6-6-6-6-6-6-6-|-6-6-6-6-6-6-6-6-|-6-6-6-6-6-6-6-6-|-6-6-6-6-6-6-6-6--|


  Slightly Slower Q=150
 7/8
  Gtr III
   H..          H..         H    Q.     E  E   E  +E   S   S   E  E
|------------|------------|-----------|------------------------------|
|-^3---------|-^5---------|-----------|------------------------------|
|-^0---------|-^6---------|------8----|----------------8---9---8-----|
|-^4---------|-^7---------|------9----|--------9--(9)--9--(9)-(9)-9--|
|-^2---------|-^4---------|------9----|----9--(9)-(9)-(9)-(9)-(9)----|
|------------|------------|-6---------|-6-(6)-(6)-(6)-(6)-(6)-(6)----|


 5/8                            7/8
   E  E  E  E  E   E E  E E  E   E E E E E +E   E    E E E E E +E   E
|----------------|-------------|---------5-(5)-(5)-|---------3-(3)-(3)--|
|----------------|-----------7-|---------5-(5)-(5)-|---------3-(3)-(3)--|
|-------------16-|-----------9-|-------------------|--------------------|
|-------14----14-|-----10---10-|-----9----------0--|-----7----------0---|
|----12----12----|---9----9----|---7---7-----------|---5---5------------|
|-10-------------|-7-----------|-5-----------------|-3------------------|


  E E E E E E  E    H    Q.     H    Q.     Q  E E E E E   Q  E  E   Q    E
|-----------------|-----------|-----------|--------------|--------------------|
|-----------------|------5----|------5----|--------------|-----------9---(9)--|
|---------4h5p=4--|------5----|------5----|----------7---|-------9---9---(9)--|
|-----4-------(4)-|------3----|------5----|------7s9---9-|----9-(9)-(9)--(9)--|
|---6---6---------|-3---------|-4---------|----5---------|--------------------|
|-4---------------|-3---------|-4---------|-5------------|-6------------------|


  Slightly Faster Q=160
  Gtrs I, II
  E E E E E E E   E E E E E E E
|---------------|---------------|
|---------1-----|---------3-----|
|-----0-----0---|-----4-----4---|
|---2---2-----2-|---5---5-----5-|
|-0-------------|-2-------------|
|---------------|---------------|


          |--3---|                |--3---|
  E E E E S  S   S  E E   E E E E S  S   S  E E
|-----------------------|------------------------|
|-----------------------|------------------------|
|-----6-7-6h=7p==6------|-----6-7-6h=7p==6-------|
|-----7-7-7-(7)-(7)-7-7-|-----7-7-7-(7)-(7)-7-7--|
|---7-----------------7-|---7-----------------7--|
|-6---------------------|-5----------------------|


 5/8                         7/8
  E  E  E  E  E   E E E E E   E E E E E +E   E    E E E E E  E  E
|---------------|-----------|---------3-(3)-(3)-|---------1-(1)----|
|---------------|-----5---5-|---------3-(3)-(3)-|---------1-(1)----|
|------------14-|-----7---7-|-------------------|-----3------3-----|
|------12----12-|-----8---8-|-----7----------0--|------------------|
|---10----10----|---7-----7-|---5---5-----------|---3---3-------3--|
|-8-------------|-5-----5---|-3-----------------|-1----------------|


            |--3---|
  E E E  E  S  S   S  E E   E E E E E +E  E
|-------------------------|-----------------|
|-------------------------|-----3---3-(3)-3-|
|-----2--3--2--3---2------|-----3---3-(3)-3-|
|-----2-(2)-2-(2)-(2)-2-2-|-----1---1-(1)-1-|
|---4-------------------4-|-1-1---1---------|
|-2-----------------------|-1-1---1---------|


  E E E E E E E   E E E  a  E E E E   E E E E E E E
|---------------|-------------------|----------------|
|-----3---3-3-3-|-------------------|---------7------|
|-----3---3-3-3-|---------------5---|-----7-----7----|
|-----3---3-3-3-|-----5-(5)s7-----7-|---7---7-----7--|
|-2-2---2-------|---3---------------|----------------|
|-2-2---2-------|-3-----------3-----|-4--------------|


  Gtrs I, II
   PM--------|              PM--------|
   E    E  E  E  E  E  E    E    E  E  E  E  E  E
|------------------------|------------------------|
|------------------------|------------------------|
|----------------0-------|----------------0-------|
|----------3--------3----|----------3--------3----|
|-------7-----7--------7-|-------7-----7--------7-|
|--0---------------------|--0---------------------|
|
| Gtr V
|  H..                     +H..
|------------------------|------------------------|
|------------------------|------------------------|
|--7---------------------|-(7)--------------------|
|--7---------------------|-(7)--------------------|
|--5---------------------|-(5)--------------------|
|------------------------|------------------------|
|
| Gtr VI
|  E    E  E  E  E  E  E    E    E  E  E  E  E  E
|------12-13-12-15-13-12-|------12-13-12-15-13-12-|
|------------------------|------------------------|
|-------9-10--9-12-10--9-|-------9-10--9-12-10--9-|
|-12---------------------|-12---------------------|
|------------------------|------------------------|
|-12---------------------|-12---------------------|


   PM--------|               PM--------|
   E    E  E  E  E  E  E     E    E  E  E  E  E  E
|------------------------|-------------------------|
|------------------------|-------------------------|
|----------------0-------|-----------------0-------|
|----------3--------3----|-----------3--------3----|
|-------7-----7--------7-|--------7-----7--------7-|
|--5---------------------|---5---------------------|
|
|  H..                      +H..
|------------------------|-------------------------|
|------------------------|-------------------------|
|-12---------------------|-(12)--------------------|
|-12---------------------|-(12)--------------------|
|-10---------------------|-(10)--------------------|
|------------------------|-------------------------|
|
|  E    E  E  E  E  E  E     E    E  E  E  E  E  E
|------12-13-12-15-13-12-|-------12-13-12-15-13-12-|
|------------------------|-------------------------|
|-12----9-10--9-12-10--9-|--12----9-10--9-12-10--9-|
|------------------------|-------------------------|
|-10---------------------|--10---------------------|
|------------------------|-------------------------|


   PM--------|               PM--------|
   E    E  E  E  E  E  E     E    E  E  E  E  E  E
|------------------------|-------------------------|
|------------------------|-------------------------|
|----------------0-------|-----------------0-------|
|----------3--------3----|-----------3--------3----|
|-------7-----7--------7-|--------7-----7--------7-|
|--3---------------------|---3---------------------|
|
|  H..                      +H..
|------------------------|-------------------------|
|------------------------|-------------------------|
|-10---------------------|-(10)--------------------|
|------------------------|-------------------------|
|--8---------------------|--(8)--------------------|
|------------------------|-------------------------|
|
|  E    E  E  E  E  E  E     E    E  E  E  E  E  E
|------12-13-12-15-13-12-|-------12-13-12-15-13-12-|
|------------------------|-------------------------|
|-------9-10--9-12-10--9-|--------9-10--9-12-10--9-|
|-15---------------------|--15---------------------|
|------------------------|-------------------------|
|-15---------------------|--15---------------------|


   PM--------|              PM--------|
   E    E  E  E  E  E  E    E    E  E  E  E  E  E
|------------------------|------------------------|
|------------------------|------------------------|
|----------------0-------|----------------0-------|
|----------1--------1----|----------1--------1----|
|-------5-----5--------5-|-------5-----5--------5-|
|--1---------------------|--1---------------------|
|
|  H..                     +H..
|------------------------|------------------------|
|------------------------|------------------------|
|--8---------------------|-(8)--------------------|
|------------------------|------------------------|
|--6---------------------|-(6)--------------------|
|------------------------|------------------------|
|
|  E    E  E  E  E  E  E    E    E  E  E  E  E  E
|------10-11-11-15-11-10-|------10-11-11-15-11-10-|
|------------------------|------------------------|
|-------7--8--7-12--8--7-|-------7--8--7-12--8--7-|
|-13---------------------|-13---------------------|
|------------------------|------------------------|
|-13---------------------|-13---------------------|


   PM--------|              PM--------|
   E    E  E  E  E  E  E    E    E  E  E  E  E  E
|------------------------|------------------------|
|------------------------|------------------------|
|----------------0-------|----------------5-------|
|----------3--------3----|----------3--------3----|
|-------7-----7--------7-|-------7-----7--------7-|
|--0---------------------|--0---------------------|
|
|  H..                     +H..
|------------------------|------------------------|
|------------------------|------------------------|
|--7---------------------|-(7)--------------------|
|--7---------------------|-(7)--------------------|
|--5---------------------|-(5)--------------------|
|------------------------|------------------------|
|
|  E    E  E  E  E  E  E    E    E  E  E  E  E  E
|------12-13-12-15-13-12-|------12-13-12-20-13-12-|
|------------------------|------------------------|
|-------9-10--9-12-10--9-|-------9-10--9-17-10--9-|
|-12---------------------|-12---------------------|
|------------------------|------------------------|
|-12---------------------|-12---------------------|


   PM--------|               PM--------|
   E    E  E  E  E  E  E     E    E  E  E  E  E  E
|------------------------|-------------------------|
|------------------------|-------------------------|
|----------------0-------|-----------------3-------|
|----------3--------3----|-----------3--------3----|
|-------7-----7--------7-|--------7-----7--------7-|
|--5---------------------|---5---------------------|
|
|  H..                      +H..
|------------------------|-------------------------|
|------------------------|-------------------------|
|-12---------------------|-(12)--------------------|
|-12---------------------|-(12)--------------------|
|-10---------------------|-(10)--------------------|
|------------------------|-------------------------|
|
|  E    E  E  E  E  E  E     E    E  E  E  E  E  E
|------12-13-12-15-13-12-|-------12-13-12-18-13-12-|
|------------------------|-------------------------|
|-12----9-10--9-12-10--9-|--12----9-10--9-15-10--9-|
|------------------------|-------------------------|
|-10---------------------|--10---------------------|
|------------------------|-------------------------|


   PM--------|               PM--------|
   E    E  E  E  E  E  E     E    E  E  E  E  E  E
|------------------------|-------------------------|
|------------------------|-------------------------|
|----------------0-------|-----------------0-------|
|----------3--------3----|-----------3--------3----|
|-------7-----7--------7-|--------7-----7--------7-|
|--3---------------------|---3---------------------|
|
|  H..                      +H..
|------------------------|-------------------------|
|------------------------|-------------------------|
|-10---------------------|-(10)--------------------|
|------------------------|-------------------------|
|--8---------------------|--(8)--------------------|
|------------------------|-------------------------|
|
|  E    E  E  E  E  E  E     E    E  E  E  E  E  E
|------12-13-12-15-13-12-|-------12-13-12-15-13-12-|
|------------------------|-------------------------|
|-------9-10--9-12-10--9-|--------9-10--9-12-10--9-|
|-15---------------------|--15---------------------|
|------------------------|-------------------------|
|-15---------------------|--15---------------------|


   PM--------|              PM--------|
   E    E  E  E  E  E  E    E    E  E  E  E  E  E
|------------------------|------------------------|
|------------------------|------------------------|
|----------------0-------|----------------0-------|
|----------1--------1----|----------1--------1----|
|-------5-----5--------5-|-------5-----5--------5-|
|--1---------------------|--1---------------------|
|
|  H..                     +H..
|------------------------|------------------------|
|------------------------|------------------------|
|--8---------------------|-(8)--------------------|
|------------------------|------------------------|
|--6---------------------|-(6)--------------------|
|------------------------|------------------------|
|
|  E    E  E  E  E  E  E    E    E  E  E  E  E  E
|------10-11-11-15-11-10-|------10-11-11-15-11-10-|
|------------------------|------------------------|
|-------7--8--7-12--8--7-|-------7--8--7-12--8--7-|
|-13---------------------|-13---------------------|
|------------------------|------------------------|
|-13---------------------|-13---------------------|


     PM--|     PM   PM----------|      PM    PM----
     E    E E  E E  E  E    E    E  E  E  E  E  E
||-----------------------|------------------------|
||o----------------------|------------------------|
||-----------------------|------------------------|
||----------7----7-------|----------3-----3-------|
||o-------4----4----4----|-------0-----0-----0----|
||---4-----------------4-|--0-------------------0-|
|
|    H..                    H..
||-----------------------|------------------------|
||o----------------------|------------------------|
||-----------------------|------------------------|
||--16-------------------|-12---------------------|
||o----------------------|------------------------|
||--16-------------------|-12---------------------|
|
|    E    E E  E E  E  E    E    E  E  E  E  E  E
||----------9----9-10-12-|------------------------|
||o------10--------------|---------10----10-12-13-|
||--11--------11---------|------10----------------|
||-----------------------|-12---------12----------|
||o----------------------|------------------------|
||-----------------------|------------------------|


 ------|     PM    PM----------|    PM   PM|
   E   E  E  E  E  E  E    E   E  E E  E E E
|-----------------------|---------------------||
|-----------------------|--------------------o||
|-----------------------|---------------------||
|--------10----10-------|---------9----9------||
|------7-----7-----7----|------6----6----6---o||
|--7------------------7-|--6---------------6--||
|
|  H..                     H..
|-----------------------|---------------------||
|-----------------------|--------------------o||
|-----------------------|---------------------||
|-19--------------------|-18------------------||
|-----------------------|--------------------o||
|-19--------------------|-18------------------||
|
|  Q      E  E  E  E  E    Q      E E  E E E
|-----------------10-11-|--------10---10-8-7--||
|-10-----13-10-13-------|--9--------9--------o||
|-----------------------|---------------------||
|-----------------------|---------------------||
|-----------------------|--------------------o||
|-----------------------|---------------------||


    Gtr I
    S  S  S  S  S  S  S  S  S  S  S  S  S  S
||-------------------12h14p12----------------|
||o---------------14----------14-------------|
||-------------14----------------14----------|
||----------14----------------------14-------|
||o-0h12h16----------------------------16p12-|
||-------------------------------------------|
|
|   Gtr II
|   PM---|            PM          PM----------
|   E     E     E     E     E     E     E
||-------------------------------------------|
||o------------------------------------------|
||-------------------------------------------|
||--------------7-----------7----------------|
||o-------4-----------4-----------4----------|
||--4-----------------------------------4----|


   S  S  S  S  S  S  S  S  S  S  S  S  S  S
|----------------13-17h18p17-13--------------|
|-------------15----------------15-----------|
|----------15----------------------15--------|
|-------15----------------------------15-----|
|-13h17----------------------------------17--|
|--------------------------------------------|
|
|-------|            PM          PM---|
|  E     E     E     E     E     E     E
|--------------------------------------------|
|--------------------------------------------|
|--------------------------------------------|
|--------------3-----------3-----------------|
|--------0-----------0-----------0-----------|
|--0-----------------------------------0-----|


   T
   S  S  S  S  S  S  S  S  S  S  S  S  S  S
|----------------12-15h17p15-12-------------|
|-------------13----------------13----------|
|----------14----------------------14-------|
|-------14----------------------------14----|
|-12h15----------------------------------15-|
|-------------------------------------------|
|
|  PM---|            PM          PM----------
|  E     E     E     E     E     E     E
|-------------------------------------------|
|-------------------------------------------|
|-------------------------------------------|
|-------------10----------10----------------|
|--------7-----------7-----------7----------|
|--7-----------------------------------7----|


   S  S  S  S  S  S  S  S  S  S  S  S  S  S
|----------------11-14h16p14-11--------------||
|-------------12----------------12----------o||
|----------13----------------------13--------||
|-------13----------------------------13-----||
|-11h14----------------------------------14-o||
|--------------------------------------------||
|
|-------|            PM          PM---|
|  E     E     E     E     E     E     E
|--------------------------------------------||
|-------------------------------------------o||
|--------------------------------------------||
|--------------9-----------9-----------------||
|--------6-----------6-----------6----------o||
|--6-----------------------------------6-----||


                                 ~~
     E  E  E  E  E       E  E    H        Q    S  S
||-------------------------12-|-15-------13---12-13-|
||o-------------10------------|---------------------|
||-----------11---------------|---------------------|
||--------11------------11----|---------------------|
||o--9-12---------------------|---------------------|
||----------------------------|---------------------|
|
|   Gtr IV
|                                ~~
|    E  E  E  E  E   a   E  E    H        Q    S  S
||-------------------------21-|-24-------22---20-22-|
||o-------------14-(14)s=5----|---------------------|
||-----------14---------------|---------------------|
||--------14------------------|---------------------|
||o-12-16---------------------|---------------------|
||----------------------------|---------------------|
|
|   Gtr II
|    PM|      PM         PM--------|   PM   PM-------
|    E  E  E  E  E       E  E    E E E E  E E  E
||----------------------------|---------------------|
||o---------------------------|---------------------|
||----------------------------|---------------------|
||---------7-----7------------|------3----3---------|
||o-----4-----4----------4----|----0---0----0-------|
||---4----------------------4-|--0-------------0----|


   ~~
   H         E  E  E    E  E  E   E  E  E  E
|-12-----------------|----------/16-18-16-----||
|-----------15-13----|-------16-----------16-o||
|-----------------14-|-13-15------------------||
|--------------------|------------------------||
|--------------------|-----------------------o||
|--------------------|------------------------||
|
|  ~~
|  H         E  E  E    E  E  E   E  E  E  E
|-20--------19-17----|-------18-/23-25-23-18--||
|-----------------17-|-16-18-----------------o||
|--------------------|------------------------||
|--------------------|------------------------||
|--------------------|-----------------------o||
|--------------------|------------------------||
|
|----|    PM    PM--------|       PM    PM|
|  E E  E E  E  E  E    E  E  E   E  E  E  E
|--------------------|------------------------||
|--------------------|-----------------------o||
|--------------------|------------------------||
|------10---10-------|--------9------9--------||
|----7----7-----7----|-----6------6-----6----o||
|--7---------------7-|--6------------------6--||


 4/4                                                 7/8
  Gtrs I, II
   E  E  E  E  E  E  E  E    E  E  E  E  E  E  E  E   Q  H    E   Q  H    E
|-------------------------|-------------------------|-----------|------------|
|-------------------------|-------------------------|-3---------|-5----------|
|-------------15----------|-------------17----------|-0---------|-6----------|
|-------15-------15-------|-------17-------17-------|-4---------|-7----------|
|----13----13-------13----|----15----15-------15----|-2---------|-4----------|
|-13-------------------13S|=15-------------------15-|-----------|------------|


                                     5/8
          |--3---|
  E E E E S  S   S  E E   Q  H    E    E  E  E  E  E   E E  E E  E
|-----------------------|-----------|----------------|--------------|
|-----------------------|-----------|----------------|------7----7--|
|-----8-9-8h=9p==8------|-----------|-------------16-|------9----9--|
|-----9-9-9-(9)-(9)-9-9-|-9---------|-------14----14-|-----10---10--|
|---9-----------------9-|-9---------|----12----12----|---9-------9--|
|-6---------------------|-7---------|-10-------------|-7------7-----|


 7/8
                                    |--3---|
  Q  E H      Q  E H      E E E  E  S  S   S  E E   Q  E H
|-----------|-----------|-------------------------|-----------|
|-----------|-----------|-------------------------|-----------|
|-----------|-----------|-----4--5--4--5---4------|-5---------|
|-9---------|-7---------|-----4-(4)-4-(4)-(4)-4-4-|-3---------|
|-7---------|-5---------|---6-------------------6-|-3---------|
|-5---------|-3---------|-4-----------------------|-3---------|


  Q  E H      E E E  a  E E E E   E E E E E E E
|-----------|-------------------|---------------|
|-----------|-------------------|---------9-----|
|-5---------|---------------7---|-----9-----9---|
|-5---------|-----7-(7)s9-----9-|---9---9-----9-|
|-4---------|---5---------------|---------------|
|-4---------|-5-----------5-----|-6-------------|


  E E E E E E E   E E E E E E E
|---------------|---------------|
|---------1-----|---------3-----|
|-----0-----0---|-----4-----4---|
|---2---2-----2-|---5---5-----5-|
|-0-------------|-2-------------|
|---------------|---------------|


          |--3---|                |--3---|
  E E E E S  S   S  E E   E E E E S  S   S  E E
|-----------------------|------------------------|
|-----------------------|------------------------|
|-----6-7-6h=7p==6------|-----6-7-6h=7p==6-------|
|-----7-7-7-(7)-(7)-7-7-|-----7-7-7-(7)-(7)-7-7--|
|---7-----------------7-|---7-----------------7--|
|-6---------------------|-5----------------------|


 5/8                         7/8
  E  E  E  E  E   E E E E E   E E E E E +E   E    E E E E E  E  E
|---------------|-----------|---------3-(3)-(3)-|---------1-(1)----|
|---------------|-----5---5-|---------3-(3)-(3)-|---------1-(1)----|
|------------14-|-----7---7-|-------------------|-----3------3-----|
|------12----12-|-----8---8-|-----7----------0--|------------------|
|---10----10----|---7-----7-|---5---5-----------|---3---3-------3--|
|-8-------------|-5-----5---|-3-----------------|-1----------------|


            |--3---|
  E E E  E  S  S   S  E E   E E E E E +E  E
|-------------------------|-----------------|
|-------------------------|-----3---3-(3)-3-|
|-----2--3--2--3---2------|-----3---3-(3)-3-|
|-----2-(2)-2-(2)-(2)-2-2-|-----1---1-(1)-1-|
|---4-------------------4-|-1-1---1---------|
|-2-----------------------|-1-1---1---------|


  E E E E E E E   E E E  a  E E E E   E E E E E E E
|---------------|-------------------|----------------|
|-----3---3-3-3-|-------------------|---------7------|
|-----3---3-3-3-|---------------5---|-----7-----7----|
|-----3---3-3-3-|-----5-(5)s7-----7-|---7---7-----7--|
|-2-2---2-------|---3---------------|----------------|
|-2-2---2-------|-3-----------3-----|-4--------------|


  D5
  Gtr V
   H..                                 +H..
   |                                    |
   /                                    /

  Gtr I
   Q         +Q      +E    +S   S  E    q        q     E  E  E
|------------------------------------|-------------------------|
|-13b15=====(13)----(13)r-(13)-11-13-|-13b15----13----11-------|
|------------------------------------|-------------------14-12-|
|------------------------------------|-------------------------|
|------------------------------------|-------------------------|
|------------------------------------|-------------------------|
|
| Gtr VI
|  E      E   E   E   E     E      E    E     E  E  E  E  E  E
|--------12--13--12--15----13-----12-|-------12-13-12-15-13-12-|
|------------------------------------|-------------------------|
|---------9--10---9--12----10------9-|--------9-10--9-12-10--9-|
|-12---------------------------------|-12----------------------|
|------------------------------------|-------------------------|
|-12---------------------------------|-12----------------------|
|
| Gtr II
|  PM------------|                      PM---------|
|  E      E   E   E   E     E      E    E     E  E  E  E  E  E
|------------------------------------|-------------------------|
|------------------------------------|-------------------------|
|---------------------0--------------|-----------------0-------|
|-------------3-------------3--------|-----------3--------3----|
|---------7-------7----------------7-|--------7-----7--------7-|
|--0---------------------------------|--0----------------------|


  G5
   H..                          +H..
   |                             |
   /                             /

   E     a   E  E  E  E  E  E    E    E  E  E   a   E  E   a   E
|-----------------------15----|-----------------------------------|
|--------------------17----18-|-17--------------------------------|
|--------------14-17----------|------17---------------------------|
|-15---(15)s17----------------|---------17-14-(14)s15-15-(15)s17--|
|-----------------------------|-----------------------------------|
|-----------------------------|-----------------------------------|
|
|  E         E  E  E  E  E  E    E    E  E  E       E  E       E
|-----------12-13-12-15-13-12-|------12-13-12------15-13------12--|
|-----------------------------|-----------------------------------|
|-12---------9-10--9-12-10--9-|-12----9-10--9------12-10-------9--|
|-----------------------------|-----------------------------------|
|-10--------------------------|-10--------------------------------|
|-----------------------------|-----------------------------------|
|
|  PM-------------|              PM--------|
|  E         E  E  E  E  E  E    E    E  E  E       E  E       E
|-----------------------------|-----------------------------------|
|-----------------------------|-----------------------------------|
|---------------------0-------|---------------------0-------------|
|---------------3--------3----|----------3-------------3----------|
|------------7-----7--------7-|-------7-----7------------------7--|
|--5--------------------------|--5--------------------------------|


  F
   H..                           +H..
   |                              |
   /                              /

             ~~~
   E     a   H.                   S    S  S  S  S  S  S  S  S  S  S  S  S  S
|------------------------------|---------------------------------------13-17-|
|------------------------------|------------------------------13-15-17-------|
|------------------------------|---------------------12-14-15----------------|
|-17---(17)s19-----------------|------------12-14-15-------------------------|
|------------------------------|-12---14-15----------------------------------|
|------------------------------|---------------------------------------------|
|
|  E         E   E  E  E  E  E    E       E     E     E     E     E     E
|-----------12--13-12-15-13-12-|---------12----13----12----15----13----12----|
|------------------------------|---------------------------------------------|
|------------9--10--9-12-10--9-|----------9----10-----9----12----10-----9----|
|-15---------------------------|-15------------------------------------------|
|------------------------------|---------------------------------------------|
|-15---------------------------|-15------------------------------------------|
|
|  PM--------------|              PM-----------------|
|  E         E   E  E  E  E  E    E       E     E     E     E     E     E
|------------------------------|---------------------------------------------|
|------------------------------|---------------------------------------------|
|----------------------0-------|----------------------------0----------------|
|----------------3--------3----|----------------3-----------------3----------|
|------------7------7--------7-|----------7-----------7-----------------7----|
|--3---------------------------|--3------------------------------------------|


     Eb
      H..                     +H..
      |                        |
      /                        /

      ~~~~
   a  Q       E  Q     q       E    E  E  E  E  E   a   E
|-13s15------13-13----------|-------------------------------|
|---------------------16----|-15----------------------------|
|---------------------------|------15-----------------------|
|---------------------------|---------15--------------------|
|---------------------------|------------18p17-15-(15)s13---|
|---------------------------|-------------------------------|
|
|     E    E  E  E  E  E  E    E    E  E  E  E  E       E
|---------10-11-11-15-11-10-|------10-11-11-15-11------10---|
|---------------------------|-------------------------------|
|----------7--8--7-12--8--7-|-------7--8--7-12--8-------7---|
|----13---------------------|-13----------------------------|
|---------------------------|-------------------------------|
|----13---------------------|-13----------------------------|
|
|     PM--------|              PM--------|
|     E    E  E  E  E  E  E    E    E  E  E  E  E       E
|---------------------------|-------------------------------|
|---------------------------|-------------------------------|
|-------------------0-------|----------------0--------------|
|-------------1--------1----|----------1--------1-----------|
|----------5-----5--------5-|-------5-----5-------------5---|
|-----1---------------------|--1----------------------------|


  D5
   H..                                          +H..
   |                                             |
   /                                             /

   S    S  S  S  S  S  S  S  S  S  S  S  S  S    S    S  S  S  S  S  S  S  S  S  S  S  S  S
|---------------------------------------------|---------------------------------------------|
|---------------------------------------------|---------------------------------------------|
|---------------------------------------------|---------------------------------------------|
|---------------------------------------------|---------------------------------------------|
|-12h==13p12p10h12h13p12p10h12h13p12h13p12p10-|-12h==13p12p10h12h13p12p10h12h13p12h13p12p10-|
|---------------------------------------------|---------------------------------------------|
|
|  E       E     E     E     E     E     E       E       E     E     E     E     E     E
|---------12----13----12----15----13----12----|---------12----13----12----20----13----12----|
|---------------------------------------------|---------------------------------------------|
|----------9----10-----9----12----10-----9----|----------9----10-----9----17----10-----9----|
|-12------------------------------------------|-12------------------------------------------|
|---------------------------------------------|---------------------------------------------|
|-12------------------------------------------|-12------------------------------------------|
|
|  PM-----------------|                          PM-----------------|
|  E       E     E     E     E     E     E       E       E     E     E     E     E     E
|---------------------------------------------|---------------------------------------------|
|---------------------------------------------|---------------------------------------------|
|----------------------------0----------------|----------------------------5----------------|
|----------------3-----------------3----------|----------------3-----------------3----------|
|----------7-----------7-----------------7----|----------7-----------7-----------------7----|
|--0------------------------------------------|--0------------------------------------------|


  G5
   H..                                          +H..
   |                                             |
   /                                             /

   S    S  S  S  S  S  S  S  S  S  S  S  S  S    S    S  S  S  S  S  S  S  S  S  S  S  S  S
|---------------------------------------------|------------------------------------------------|
|---------------------------------------------|------------------------------------------------|
|---------------------------------------------|------------------------------------------------|
|---------------------------------------------|------------------------------------------------|
|-12h==13p12p10h12h13p12p10h12h13p12h13p12p10-|-12h==13p12p10h12h13p12p10h12h13p12h13p12p10----|
|---------------------------------------------|------------------------------------------------|
|
|  E       E     E     E     E     E     E       E       E     E     E     E     E     E
|---------12----13----12----15----13----12----|---------12----13----12----18----13----12-------|
|---------------------------------------------|------------------------------------------------|
|-12-------9----10-----9----12----10-----9----|-12-------9----10-----9----15----10-----9-------|
|---------------------------------------------|------------------------------------------------|
|-10------------------------------------------|-10---------------------------------------------|
|---------------------------------------------|------------------------------------------------|
|
|  PM-----------------|                          PM-----------------|
|  E       E     E     E     E     E     E       E       E     E     E     E     E     E
|---------------------------------------------|------------------------------------------------|
|---------------------------------------------|------------------------------------------------|
|----------------------------0----------------|----------------------------3-------------------|
|----------------3-----------------3----------|----------------3-----------------3-------------|
|----------7-----------7-----------------7----|----------7-----------7-----------------7-------|
|--5------------------------------------------|--5---------------------------------------------|


  F
   H..
   |
   /

   S    S  S  S  S  S  S  S  S  S  S  S  S  S
|---------------------------------------------|
|---------------------------------------------|
|------------------------------------12-14-12-|
|---------12-14-12----------12-14-15----------|
|-13---15----------15-13-15-------------------|
|---------------------------------------------|
|
|  E       E     E     E     E     E     E
|---------12----13----12----15----13----12----|
|---------------------------------------------|
|----------9----10-----9----12----10-----9----|
|-15------------------------------------------|
|---------------------------------------------|
|-15------------------------------------------|
|
|  PM-----------------|
|  E       E     E     E     E     E     E
|---------------------------------------------|
|---------------------------------------------|
|----------------------------0----------------|
|----------------3-----------------3----------|
|----------7-----------7-----------------7----|
|--3------------------------------------------|


  +H..
   |
   /

   |-------3--------|  |------3-------|  |-----------3-----------|
   S    S  S  S  S  S  S  S  S  S  S  S  S  S  S  S  S  S  S  S  S
|------------------------------------------------------------12-13-|
|------------------------------------13-15-13----------13-15-------|
|---------12-14-12----------12-14-15----------15-14-15-------------|
|-14---15----------15-14-15----------------------------------------|
|------------------------------------------------------------------|
|------------------------------------------------------------------|
|
|  E          E        E        E        E        E        E
|------------12-------13-------12-------15-------13-------12-------|
|------------------------------------------------------------------|
|-------------9-------10--------9-------12-------10--------9-------|
|-15---------------------------------------------------------------|
|------------------------------------------------------------------|
|-15---------------------------------------------------------------|
|
|  PM--------------------------|
|  E          E        E        E        E        E        E
|------------------------------------------------------------------|
|------------------------------------------------------------------|
|----------------------------------------0-------------------------|
|----------------------3--------------------------3----------------|
|-------------7-----------------7--------------------------7-------|
|--3---------------------------------------------------------------|


  Eb
    H..                     +H..
    |                        |
    /                        /

    Q       E  Q     E  E    S    S  S  S  S  S  S  S  S  S  S  S  S  S
|-/17------18-15----13----|---------------------------------------------|
|-------------------------|---------------------------------------13-15-|
|-------------------------|------------------------------12-14-15-------|
|-------------------------|---------------------12-14-15----------------|
|-------------------------|------------12-13-15-------------------------|
|-------------------------|-13---15-17----------------------------------|
|
|   E    E  E  E  E  E  E    E       E     E     E     E     E     E
|-------10-11-11-15-11-10-|---------10----11----11----15----11----10----|
|-------------------------|---------------------------------------------|
|--------7--8--7-12--8--7-|----------7-----8-----7----12-----8-----7----|
|--13---------------------|-13------------------------------------------|
|-------------------------|---------------------------------------------|
|--13---------------------|-13------------------------------------------|
|
|   PM--------|              PM-----------------|
|   E    E  E  E  E  E  E    E       E     E     E     E     E     E
|-------------------------|---------------------------------------------|
|-------------------------|---------------------------------------------|
|-----------------0-------|----------------------------0----------------|
|-----------1--------1----|----------------1-----------------1----------|
|--------5-----5--------5-|----------5-----------5-----------------5----|
|---1---------------------|--1------------------------------------------|


  D5
   H..                      +H..
   |                         |
   /                         /

                             >
   ~~~~~~~~~~~~~~~~~~~~~~~~~~~~~~~~~~~~~~~~~~~~~~~~~
   H..                      +H..
|------------------------|-------------------------|
|-17---------------------|-(17)--------------------|
|------------------------|-------------------------|
|------------------------|-------------------------|
|------------------------|-------------------------|
|------------------------|-------------------------|
|
|  E    E  E  E  E  E  E     E    E  E  E  E  E  E
|------12-13-12-15-13-12-|-------12-13-12-15-13-12-|
|------------------------|-------------------------|
|-------9-10--9-12-10--9-|--------9-10--9-12-10--9-|
|-12---------------------|--12---------------------|
|------------------------|-------------------------|
|-12---------------------|--12---------------------|
|
|  PM--------|               PM--------|
|  E    E  E  E  E  E  E     E    E  E  E  E  E  E
|------------------------|-------------------------|
|------------------------|-------------------------|
|----------------0-------|-----------------0-------|
|----------3--------3----|-----------3--------3----|
|-------7-----7--------7-|--------7-----7--------7-|
|--0---------------------|---0---------------------|


  G5
    H..                      +H..
    |                         |
    /                         /

 ~~~~~~~~~~~~~~~~~~~~~~~~~~~~~~~~~
   +H..                      +H..
|-------------------------|-------------------------|
|-(17)--------------------|-(17)--------------------|
|-------------------------|-------------------------|
|-------------------------|-------------------------|
|-------------------------|-------------------------|
|-------------------------|-------------------------|
|
|   E    E  E  E  E  E  E     E    E  E  E  E  E  E
|-------12-13-12-15-13-12-|-------12-13-12-15-13-12-|
|-------------------------|-------------------------|
|--12----9-10--9-12-10--9-|--12----9-10--9-12-10--9-|
|-------------------------|-------------------------|
|--10---------------------|--10---------------------|
|-------------------------|-------------------------|
|
|   PM--------|               PM--------|
|   E    E  E  E  E  E  E     E    E  E  E  E  E  E
|-------------------------|-------------------------|
|-------------------------|-------------------------|
|-----------------0-------|-----------------0-------|
|-----------3--------3----|-----------3--------3----|
|--------7-----7--------7-|--------7-----7--------7-|
|---5---------------------|---5---------------------|


  Gtrs I, II
   PM--------|               PM--------|
   E    E  E  E  E  E  E     E    E  E  E  E  E  E
|------------------------|-------------------------|
|------------------------|-------------------------|
|----------------0-------|-----------------0-------|
|----------3--------3----|-----------3--------3----|
|-------7-----7--------7-|--------7-----7--------7-|
|--3---------------------|---3---------------------|
|
| Gtr V
|  H..                      +H..
|------------------------|-------------------------|
|------------------------|-------------------------|
|-10---------------------|-(10)--------------------|
|------------------------|-------------------------|
|--8---------------------|--(8)--------------------|
|------------------------|-------------------------|
|
| Gtr VI
|  E    E  E  E  E  E  E     E    E  E  E  E  E  E
|------12-13-12-15-13-12-|-------12-13-12-15-13-12-|
|------------------------|-------------------------|
|-------9-10--9-12-10--9-|--------9-10--9-12-10--9-|
|-15---------------------|--15---------------------|
|------------------------|-------------------------|
|-15---------------------|--15---------------------|


   PM--------|              PM--------|
   E    E  E  E  E  E  E    E    E  E  E  E  E  E
|------------------------|------------------------|
|------------------------|------------------------|
|----------------0-------|----------------0-------|
|----------1--------1----|----------1--------1----|
|-------5-----5--------5-|-------5-----5--------5-|
|--1---------------------|--1---------------------|
|
|  H..                     +H..
|------------------------|------------------------|
|------------------------|------------------------|
|--8---------------------|-(8)--------------------|
|------------------------|------------------------|
|--6---------------------|-(6)--------------------|
|------------------------|------------------------|
|
|  E    E  E  E  E  E  E    E    E  E  E  E  E  E
|------10-11-11-15-11-10-|------10-11-11-15-11-10-|
|------------------------|------------------------|
|-------7--8--7-12--8--7-|-------7--8--7-12--8--7-|
|-13---------------------|-13---------------------|
|------------------------|------------------------|
|-13---------------------|-13---------------------|


   PM--------|              PM--------|
   E    E  E  E  E  E  E    E    E  E  E  E  E  E
|------------------------|------------------------|
|------------------------|------------------------|
|----------------0-------|----------------5-------|
|----------3--------3----|----------3--------3----|
|-------7-----7--------7-|-------7-----7--------7-|
|--0---------------------|--0---------------------|
|
|  H..                     +H..
|------------------------|------------------------|
|------------------------|------------------------|
|--7---------------------|-(7)--------------------|
|--7---------------------|-(7)--------------------|
|--5---------------------|-(5)--------------------|
|------------------------|------------------------|
|
|  E    E  E  E  E  E  E    E    E  E  E  E  E  E
|------12-13-12-15-13-12-|------12-13-12-20-13-12-|
|------------------------|------------------------|
|-------9-10--9-12-10--9-|-------9-10--9-17-10--9-|
|-12---------------------|-12---------------------|
|------------------------|------------------------|
|-12---------------------|-12---------------------|


   PM--------|               PM--------|
   E    E  E  E  E  E  E     E    E  E  E  E  E  E
|------------------------|-------------------------|
|------------------------|-------------------------|
|----------------0-------|-----------------3-------|
|----------3--------3----|-----------3--------3----|
|-------7-----7--------7-|--------7-----7--------7-|
|--5---------------------|---5---------------------|
|
|  H..                      +H..
|------------------------|-------------------------|
|------------------------|-------------------------|
|-12---------------------|-(12)--------------------|
|-12---------------------|-(12)--------------------|
|-10---------------------|-(10)--------------------|
|------------------------|-------------------------|
|
|  E    E  E  E  E  E  E     E    E  E  E  E  E  E
|------12-13-12-15-13-12-|-------12-13-12-18-13-12-|
|------------------------|-------------------------|
|-12----9-10--9-12-10--9-|--12----9-10--9-15-10--9-|
|------------------------|-------------------------|
|-10---------------------|--10---------------------|
|------------------------|-------------------------|


   PM--------|               PM--------|
   E    E  E  E  E  E  E     E    E  E  E  E  E  E
|------------------------|-------------------------|
|------------------------|-------------------------|
|----------------0-------|-----------------0-------|
|----------3--------3----|-----------3--------3----|
|-------7-----7--------7-|--------7-----7--------7-|
|--3---------------------|---3---------------------|
|
|  H..                      +H..
|------------------------|-------------------------|
|------------------------|-------------------------|
|-10---------------------|-(10)--------------------|
|------------------------|-------------------------|
|--8---------------------|--(8)--------------------|
|------------------------|-------------------------|
|
|  E    E  E  E  E  E  E     E    E  E  E  E  E  E
|------12-13-12-15-13-12-|-------12-13-12-15-13-12-|
|------------------------|-------------------------|
|-------9-10--9-12-10--9-|--------9-10--9-12-10--9-|
|-15---------------------|--15---------------------|
|------------------------|-------------------------|
|-15---------------------|--15---------------------|


   PM--------|              PM--------|
   E    E  E  E  E  E  E    E    E  E  E  E  E  E
|------------------------|------------------------|
|------------------------|------------------------|
|----------------0-------|----------------0-------|
|----------1--------1----|----------1--------1----|
|-------5-----5--------5-|-------5-----5--------5-|
|--1---------------------|--1---------------------|
|
|  H..                     +H..
|------------------------|------------------------|
|------------------------|------------------------|
|--8---------------------|-(8)--------------------|
|------------------------|------------------------|
|--6---------------------|-(6)--------------------|
|------------------------|------------------------|
|
|  E    E  E  E  E  E  E    E    E  E  E  E  E  E
|------10-11-11-15-11-10-|------10-11-11-15-11-10-|
|------------------------|------------------------|
|-------7--8--7-12--8--7-|-------7--8--7-12--8--7-|
|-13---------------------|-13---------------------|
|------------------------|------------------------|
|-13---------------------|-13---------------------|


  PM----|         PM----|         PM----|         PM----|
  E E E E E E E   E E E E E E E   E E E E E E E   E E E E E E E   E  H.
|---------------|---------------|---------------|---------------|----------*|
|---------------|---------------|---------------|---------------|----------*|
|---------0-----|---------0-----|---------5-----|---------5-----|----------*|
|-----3-----3---|-----3-----3---|-----3-----3---|-----3-----3---|----------*|
|---7---7-----7-|---7---7-----7-|---7---7-----7-|---7---7-----7-|----------*|
|-0-------------|-0-------------|-0-------------|-0-------------|-0--------*|



Duration Legend
---------------
W - whole; H - half; Q - quarter; E - 8th; S - 16th; T - 32nd; X - 64th; a - acciaccatura
+ - note tied to previous; . - note dotted; .. - note double dotted
Uncapitalized letters represent notes that are staccato (1/2 duration)
Irregular groupings are notated above the duration line
Duration letters will always appear directly above the note/fret number it represents the
duration for.  Duration letters with no fret number below them represent rests.  Multi-
bar rests are notated in the form Wxn, where n is the number of bars to rest for.  Low
melody durations appear below the staff

Tablature Legend
----------------
 h   - hammer-on
 p   - pull-off
 b   - bend
 pb  - pre-bend
 r   - bend release (if no number after the r, then release immediately)
 /\  - slide into or out of (from/to "nowhere")
 s   - legato slide
 S   - shift slide
<n> - natural harmonic
[n]  - artificial harmonic
n(n) - tapped harmonic
 ~   - vibrato
 tr  - trill
 T   - tap
 TP  - trem. picking
 PM  - palm muting
\n/  - tremolo bar dip; n = amount to dip
 \n  - tremolo bar down
 n/  - tremolo bar up
/n\  - tremolo bar inverted dip
 =   - hold bend; also acts as connecting device for hammers/pulls
 <> - volume swell (louder/softer)
 x   - on rhythm slash represents muted slash
 o   - on rhythm slash represents single note slash

Misc Legend
-----------
 |  - bar
||  - double bar
||o - repeat start
o|| - repeat end
*|  - double bar (ending)
 :  - bar (freetime)
 $  - Segno
 &  - Coda
Tempo markers - <E/E./Q/Q./H/H.> = BPM(8/16=s8/s16), where s8 = swing 8ths, s16 = swing 16ths


** Generated using Power Tab Editor by Brad Larsen: The Official Power Tab Web Site
comments
We did not receive enough feedback on this tab! Please rate:
print report bad tab
1 2 3 4 5
2 comments total.
0 reply
Agent_00Funk wrote on July 17 2007, 03:23 am

Awesome tab but it would be nice to tell us which part of the bars meet up at what time in the song.

0 reply
whitenoise6955 wrote on August 11 2008, 09:27 pm

great shit.

I want to post or [tab]
guest
You may want to rate the tab now too:
select rating
Please do not post tabs as comments. Select "correction" instead!