Oops, an error
Loading. Please wait.

All Dark Graves Bass Tab

ver2
ver2

Whole song

Interactive

More versions @911Tabs.com
280 views 1 this week
no commentswrite comment
1 2 3 4 5
excellent!
x 1
Autoscroll
+/-
esc
set tempo
stop
Contributor
Difficulty
Tuning
intermediate
C G C F A D
WARNING: You are trying to view
                                    content from Ultimate-Guitar.com
                                    in an unauthorized application,
                                    which is prohibited.

                                    Please use an official Ultimate
                                    Guitar Tabs application for iPhone,
                                    iPad or Android to access legitimate
                                    chords, guitar, bass, and drum tabs
                                    from Ultimate-Guitar.com database.

                                    Type "ultimate guitar tabs" in Apple
                                    App Store's or Android Market's
                                    search to find the application.
F|--------|-------------|---------------------|------------------------|
C|--------|-------------|---------------------|------------------------|
G|--------|-------------|---------------------|------------------------|
C|--------|---------8\--|-0-----0---1----6----|-0-----0---1----6--6----|


F|-------------------------------------------------|
C|-------------7--------------8-----8-----6-----6--|
G|-5--8--5--8-----8--5--8--6-----6-----4-----4-----|
C|-------------------------------------------------|


F|------------------|-------------------------------------|
C|------------------|-7-----------------------------------|
G|------------------|---------------10------------8-------|
C|-0-----0---1------|-----0--0--0-------0--0--0-------0---|


F|-7------------------------|
C|----10--8--7--------------|
G|--------------10--8--7----|
C|--------------------------|


F|-------------------------------------------------|
C|-------------------------------------3--3--3--3--|
G|-------------5--5--5--5--7--7--7--7--------------|
C|-3--3--3--3--------------------------------------|


F|-------------------------------------------------|
C|-------------------------5--5--5--5--6--6--6--6--|
G|-------------8--8--8--8--------------------------|
C|-6--6--6--6--------------------------------------|


F|-------------------------------------|
C|--7----------------------------------|
G|---------------10------------8-------|
C|-----0--0--0-------0--0--0-------0---|


F|-7-------------------------------|
C|-----10--8---7-------------------|
G|-----------------10--8---7---7---|
C|---------------------------------|


F|-------------------------------------------------|
C|-------------------------------------3--3--3--3--|
G|-------------5--5--5--5--7--7--7--7--------------|
C|-3--3--3--3--------------------------------------|


F|------------------------------------------|
C|-------------------------5--5--5--5--6----|
G|-------------8--8--8--8-------------------|
C|-6--6--6--6-------------------------------|


F|-------------------------------------|
C|-7-----------------------------------|
G|---------------10------------8-------|
C|-----0--0--0-------0--0--0-------0---|


F|-7-------------------------------|
C|-----10--8---7-------------------|
G|-----------------10--8---7---7---|
C|---------------------------------|


F|-------------------------------------------------|
C|-------------------------------------3--3--3--3--|
G|-------------5--5--5--5--7--7--7--7--------------|
C|-3--3--3--3--------------------------------------|


F|-------------------------------------------------|
C|-------------------------5--5--5--5--6--6--6--6--|
G|-------------8--8--8--8--------------------------|
C|-6--6--6--6--------------------------------------|


F|-------------------------------------|
C|-7-----------------------------------|
G|---------------10------------8-------|
C|-----0--0--0-------0--0--0-------0---|


F|-7-------------------------------|
C|-----10--8---7-------------------|
G|-----------------10--8---7---7---|
C|---------------------------------|


F|-------------------------------------------------|
C|-------------------------------------3--3--3--3--|
G|-------------5--5--5--5--7--7--7--7--------------|
C|-3--3--3--3--------------------------------------|


F|-------------------------------------------------|
C|-------------------------5--5--5--5--6--6--6--6--|
G|-------------8--8--8--8--------------------------|
C|-6--6--6--6--------------------------------------|


F|--------------|--------------|--------------|--------------|
C|--------------|--------------|--------------|--------------|
G|--------------|--------------|--------------|--------------|
C|-2---2--------|-2---2--------|-6---6--------|-6---6--------|


F|-------------------------|------------------------|
C|-------------------------|------------------------|
G|-6-----------6-----------|-6-----------5----------|
C|-----1-1-1-------1-1-1---|-----0-0-0-------0-0-0--|


F|-----------------------|-----------------------|-----------------------|
C|-----------------------|-----------------------|-----------------------|
G|-6-----------6---------|-6---------------------|---------1---0---3---1-|
C|-----1-1-1-------1-1-1-|-----1-1-0---0---0---1-|-4---3-----------------|


F|-------------------------------------|-7-------------------------------|
C|-7-----------------------------------|-----10--8---7-------------------|
G|---------------10------------8-------|-----------------10--8---7-------|
C|-----0--0--0-------0--0--0-------0---|---------------------------------|


F|-------------------------------------------------|
C|-------------------------------------3--3--3--3--|
G|-------------5--5--5--5--7--7--7--7--------------|
C|-3--3--3--3--------------------------------------|


F|-------------------------------------------------|
C|-------------------------5--5--5--5--6--6--6--6--|
G|-------------8--8--8--8--------------------------|
C|-6--6--6--6--------------------------------------|


F|-------------------------------------|
C|-7-----------------------------------|
G|---------------10------------8-------|
C|-----0--0--0-------0--0--0-------0---|


F|-7-------------------------------|
C|-----10--8---7-------------------|
G|-----------------10--8---7---7---|
C|---------------------------------|


F|-------------------------------------------------|
C|-------------------------------------------------|
G|-------------5--5--5--5--7--7--7--7--8--8--8--8--|
C|-8--8--8--8--------------------------------------|


F|-------------------------------------------------|
C|-------------------------------------------------|
G|-------------5--5--5--5--7--7--7--7--8--8--5--5--|
C|-6--6--6--6--------------------------------------|


F|-------------------------------------------------|
C|-------------------------------------------------|
G|-------------7--7--7--7--8--8--8--8--10-10-7--7--|
C|-10-10-10-10-------------------------------------|


F|-----------------------------------------------|-----------------------|
C|-----------------------------------------------|-----------------------|
G|-------------7--7--7--7--8--8--8--8--10--------|-----------------------|
C|-11-11-11-11-----------------------------0--0--|-0---0---0---0---0---0-|


F|---------------------------------|------------------------------|
C|---------------------------------|------------------------------|
G|-5---------------5-------4-------|-5---------------5-------8----|
C|-----0-0-0---0-------------------|-----0-0-0---0----------------|


F|---------------------------------|------------------------------|
C|---------------------------------|------------------------------|
G|-5---------------5-------4-------|-----5-------------------5----|
C|-----0-0-0---0-------------------|-0-------6---3---2---5--------|


F|---------------------------------|------------------------------|
C|---------------------------------|------------------------------|
G|-5---------------5-------4-------|-5---------------5-------8----|
C|-----0-0-0---0-------------------|-----0-0-0---0----------------|


F|---------------------------------|---------------------------------|
C|---------------------------------|---------------------------------|
G|-5---------------5-------4-------|-5---4---5---7---5---4-----------|
C|-----0-0-0---0-------------------|-------------------------8---7---|


F|---------------------------------|------------------------------|
C|---------------------------------|------------------------------|
G|-5---------------5-------4-------|-5---------------5-------8----|
C|-----0-0-0---0-------------------|-----0-0-0---0----------------|


F|----------------------------|-- Crazy --|----------------------------|
C|----------------------------|--- Fast --|----------------------------|
G|-5---------------5-------4--|-- Guitar -|-5---------------5-------4--|
C|-----0-0-0---0--------------|--- Part --|-----0-0-0---0--------------|


F|----------------------------|--------------------------|----------------|
C|----------------------------|--------------------------|----------------|
G|-5---------------5-------8--|-5---------------5-----4--|-----5----------|
C|-----0-0-0---0--------------|-----0-0-0---0------------|-0-------6---3--|


F|---------------------------------|--------------------|--------|
C|---------------------------------|--------------------|--------|
G|-------------4---------------1---|-5-------0---3------|--------|
C|-0---2---5-------5---2---5-------|-----3--------------|-0~~~-0-|



           ----Acoustic Interlude----



F|--------------------------------------------------|
C|--------------------------------------------------|
G|-1--------------1-----------------------1-----1---|
C|----0-----0-0-0----0--0-------0-0-0--------0------|


F|------------------------------------------|
C|-7------------7------------------7-----7--|
G|----4---4-4-4----4--4----4-4-4------4-----|
C|------------------------------------------|


F|-----------------------------------------|
C|-3------------3------------------3-----3-|
G|-----------------------------------------|
C|----3---3-3-3----3--3----3-3-3------3----|


F|------------------------------------------|
C|-7------------7------------------7-----7--|
G|----4---4-4-4----4--4----4-4-4------4-----|
C|------------------------------------------|


F|-----------------------------------------|
C|-----------------------------------------|
G|-1--------------1------------------------|
C|----0-----0-0-0----0--0-----0-0-0-0-0----|


F|------------------------------------------|
C|-7------------7------------------7-----7--|
G|----4---4-4-4----4--4----4-4-4------4-----|
C|------------------------------------------|


F|-----------------------------------------|
C|-3------------3------------------3-----3-|
G|-----------------------------------------|
C|----3---3-3-3----3--3----3-3-3------3----|


F|------------------------------------------|
C|-7------------7------------------7-----7--|
G|----4---4-4-4----4--4----4-4-4------4-----|
C|------------------------------------------|


F|--------------------------------------------------|
C|--------------------------------------------------|
G|-1--------------1-----------------------1-----1---|
C|----0-----0-0-0----0--0-------0-0-0--------0------|


F|------------------------------------------|
C|-7------------7------------------7-----7--|
G|----4---4-4-4----4--4----4-4-4------4-----|
C|------------------------------------------|


F|-----------------------------------------|
C|-3------------3------------------3-----3-|
G|-----------------------------------------|
C|----3---3-3-3----3--3----3-3-3------3----|


F|------------------------------------------|
C|-7------------7------------------7-----7--|
G|----4---4-4-4----4--4----4-4-4------4-----|
C|------------------------------------------|


F|--------------------------------------------------|
C|--------------------------------------------------|
G|-1--------------1-----------------------1-----1---|
C|----0-----0-0-0----0--0-------0-0-0--------0------|


F|------------------------------------------|
C|-7------------7------------------7-----7--|
G|----4---4-4-4----4--4----4-4-4------4-----|
C|------------------------------------------|


F|-----------------------------------------|
C|-3------------3------------------3-----3-|
G|-----------------------------------------|
C|----3---3-3-3----3--3----3-3-3------3----|


F|-----------------------------------------|
C|-7------------7-----------------7-----7--|
G|----4---4-4-4----4--4---4-4-4------4-----|
C|-----------------------------------------|


F|--------|--------|-------------------------------|
C|-----5~-|-----4~-|---------------------7---6-----|
G|-7~-----|-6~-----|---------7---8-----------------|
C|--------|--------|-0---0-----------0-----------0-|


F|----------------------------------|-----------|
C|----------------------------------|-----------|
G|-4-5-4--7-8-7---------------------|-----------|
C|----------------3----2----1----0--|-3---4-----|


F|---------------------------------|
C|---------------------8---6-------|
G|---------7---8-------------------|
C|-0---0-----------0-----------0---|


F|------------------------------------|-----------|---------------------|
C|------------------------------------|-----------|---------------------|
G|-4-5-4--7-8-7-----------------------|-----------|----------7----------|
C|----------------3----2----1----0----|-3---4-----|-0--0--0-------8---6-|


F|--------------------|------------|----|----------------------------------|
C|--------------------|------------|----|----------------------------------|
G|--------6-----------|------------|----|----------------------------------|
C|-0-0-0-------7---5--|-0--0--0--0-|----|-0--0--0--0--0-----0--0--0--0--0--|


F|-----|----|----------------------------|-------------------------------|
C|-----|----|-----2----------------------|-------------------------------|
G|-----|----|-0-------3---0----------4---|-------------------------------|
C|-----|----|-----------------4---4------|-0---0---0---0------------8----|


F|---------------------------|-------------------------------------|
C|---------------------------|-------------------------------------|
G|---------------------------|------------------5--------------5---|
C|-0--0----0--0----0--0--7---|-3--3----3--3--0-----6--3--2--5------|


F|----------------------------|
C|----------------------------|
G|----------------------------|
C|-0--0----0--0-----0--0--7---|


F|----------------------------------------|
C|----------------------------------------|
G|---------------------5--------------5---|
C|-3--3-------3--3--0-----6--3--2--5------|


F|----------------------7--5---------------------|
C|-------5-----5--7-----------8--7--5-----5--7---|
G|-------------------------------------8---------|
C|-0--0-----0--------0---------------------------|


F|----------------------7--5-------------------|
C|-------5-----5--7-----------8--7--5-----5--7-|
G|-------------------------------------8-------|
C|-3--3-----3--------3-------------------------|


F|----------------------7--5---------------------|
C|-------5-----5--7-----------8--7--5-----5--7---|
G|-------------------------------------8---------|
C|-0--0-----0--------0---------------------------|


F|----------------------7--5-------------------|
C|-------5-----5--7-----------8--7--5-----5--7-|
G|-------------------------------------8-------|
C|-3--3-----3--------3-------------------------|


F|-------------------------------------------------|
C|-------------------------------------------------|
G|-------------------------------------------------|
C|-8--8--8--8--8--8--8--8--8--8--8--8--8--8--8--8--|


F|-------------------------------------------------|
C|-------------------------------------------------|
G|-------------------------------------------------|
C|-5--5--5--5--5--5--5--5--5--5--5--5--5--5--5--5--|


F|-------------------------------------------------|
C|-------------------------------------------------|
G|-------------------------------------------------|
C|-3--3--3--3--3--3--3--3--3--3--3--3--3--3--3--3--|


F|------------------------------------------------|- Back --|
C|------------------------------------------------|-- To ---|
G|-4--4--4--4--4--4--4--4--4--4--4--4--4--4--4--4-|- Intro -|
C|------------------------------------------------|-- Riff -|


F|-7-------------------------------|
C|-----10--8---7-------------------|
G|-----------------10--8---7-------|
C|---------------------------------|


F|------------------------------------------------|
C|-------------------------------------3--3--3--3-|
G|-------------5--5--5--5--7--7--7--7-------------|
C|-3--3--3--3-------------------------------------|


F|------------------------------------------------|
C|-------------------------5--5--5--5--6--6--6--6-|
G|-------------8--8--8--8-------------------------|
C|-6--6--6--6-------------------------------------|


F|-------------------------------------|
C|-7-----------------------------------|
G|---------------10------------8-------|
C|-----0--0--0-------0--0--0-------0---|


F|-7-------------------------------|
C|-----10--8---7-------------------|
G|-----------------10--8---7-------|
C|---------------------------------|


F|-------------------------------------------------|
C|-------------------------------------------------|
G|-------------5--5--5--5--7--7--7--7--8--8--8--8--|
C|-8--8--8--8--------------------------------------|


F|-------------------------------------------------|
C|-------------------------------------------------|
G|-------------5--5--5--5--7--7--7--7--8--8--5--5--|
C|-6--6--6--6--------------------------------------|


F|----------------------------------------------|
C|----------------------------------------------|
G|-------------7--7--7--7--8--8--8--8--10-10-7--|
C|-10-10-10-10----------------------------------|


F|-----------------------------------------------|
C|-----------------------------------------------|
G|-------------7--7--7--7--8--8--8--8--10--------|
C|-11-11-11-11-----------------------------0--0--|


F|-------------------------------|--------------------|
C|-------------------------------|--------------------|
G|-------------------------------|--------------------|
C|-0----0----0----0----0----0----|-0---0--------------|
comments
We did not receive enough feedback on this tab! Please rate:
print report bad tab
1 2 3 4 5
I want to post or [tab]
guest
You may want to rate the tab now too:
select rating
Please do not post tabs as comments. Select "correction" instead!