Oops, an error
Loading. Please wait.

Coldly Calculated Design Bass Tab

ver1
ver1

Whole song

Interactive

More versions @911Tabs.com
2,212 views 1 this week
no commentswrite comment
1 2 3 4 5
excellent!
x 1
Autoscroll
+/-
esc
set tempo
stop
Contributor
Hey! There's an official Ultimate Guitar app which is ideal
for learning songs when you're away from computer. Get the app
WARNING: You are trying to view
                                    content from Ultimate-Guitar.com
                                    in an unauthorized application,
                                    which is prohibited.

                                    Please use an official Ultimate
                                    Guitar Tabs application for iPhone,
                                    iPad or Android to access legitimate
                                    chords, guitar, bass, and drum tabs
                                    from Ultimate-Guitar.com database.

                                    Type "ultimate guitar tabs" in Apple
                                    App Store's or Android Market's
                                    search to find the application.
                           Coldly Calculated Design                             


                                                                    The Faceless


ALL credit of this tab goes to L0G05.
I just took it from Guitarpro, and made it a normal tab.


Bass


tuning: GCGCF


          |--3--|                    |--3--|             
     Q    E  E  E  Q    Q       Q    E  E  E  Q    Q     
F||--------------------------|--------------------------|
C||--------------------------|--------------------------|
G||--------------------------|--------------------------|
C||--8----8--8--8--8----7----|--8----8--8--8--8----9----|
G||--------------------------|--------------------------|


       |--3--|               |--3--|                  
  Q    E  E  E  Q    Q       E  E  E  Q    Q    Q     
--------------------------|--------------------------|
--------------------------|--------------------------|
--------------------------|--------------------------|
--8----8--8--8--8----4----|--4--4--4--3----2----3----|
--------------------------|--------------------------|


  |--3--|  |--3--|  |--3--|  3              |--3--|             
  E  E  E  E  E  E  E  E  E  Q.        Q    E  E  E  Q    Q     
------------------------------------|--------------------------|
------------------------------------|--------------------------|
--4--4--4--4--4--4--4--4--4--3------|--------------------------|
------------------------------------|--8----8--8--8--8----7----|
------------------------------------|--------------------------|


       |--3--|                    |--3--|             
  Q    E  E  E  Q    Q       Q    E  E  E  Q    Q     
--------------------------|--------------------------|
--------------------------|--------------------------|
--------------------------|--------------------------|
--8----8--8--8--8----9----|--8----8--8--8--8----4----|
--------------------------|--------------------------|


                             |---3---|  |---3---|  |----3----|     
  E  E  E  E  E  E  E  E     E   E   E  E   E   E  Q    Q    Q     
--------------------------|---------------------------------------|
--------------------------|---------------------------------------|
--0--1--0-----------------|------------------------1--------------|
-----------4--3--1--------|-------------1h--3h--4-------3----4----|
--------------------4--3--|--1h--3h--4----------------------------|


                              |--3--|                    |--3--|             
  H         Q    Q       Q    E  E  E  Q    Q       Q    E  E  E  Q    Q     
----------------------|--------------------------|--------------------------|
----------------------|--------------------------|--------------------------|
----------------------|--------------------------|--------------------------|
--3~--------8----7----|--8----8--8--8--8----9----|--8----8--8--8--8----4----|
----------------------|--------------------------|--------------------------|


  |--3--|                    |--3--|  |--3--|  |--3--|  3       
  E  E  E  Q    Q    Q       E  E  E  E  E  E  E  E  E  Q.      
--------------------------|------------------------------------|
--------------------------|------------------------------------|
--------------------------|--4--4--4--4--4--4--4--4--4--3------|
--4--4--4--3----2----3----|------------------------------------|
--------------------------|------------------------------------|


       |--3--|                    |--3--|             
  Q    E  E  E  Q    Q       Q    E  E  E  Q    Q     
--------------------------|--------------------------|
--------------------------|--------------------------|
--------------------------|--------------------------|
--8----8--8--8--8----7----|--8----8--8--8--8----9----|
--------------------------|--------------------------|


       |--3--|                                               
  Q    E  E  E  Q    Q    Q    Q                             
------------------------------------|-------|-------|-------|
------------------------------------|-------|-------|-------|
------------------------------------|-------|-------|-------|
--8----8--8--8--8----4---------4----|-------|-------|-------|
------------------------------------|-------|-------|-------|


  E  E  E  E  E  E  E  E  E  E  E     E  E  E  E  E   
-----------------------------------|-----------------|
-----------------------------------|-----------------|
-----------------------------------|-----------------|
--0--0--0--0--0--0--3--3--3--3--3--|--1--1--1--4--4--|
-----------------------------------|-----------------|


  E  E  E  E  E  E  E  E  E  E  E     E  E  E  E  E  E  E  E  E  E  E   
-----------------------------------|-----------------------------------|
-----------------------------------|-----------------------------------|
--1--1--1--4--4--4-----------------|-----------------------------------|
--------------------2--2--2--2--2--|--0--0--0--0--0--0--3--3--3--3--3--|
-----------------------------------|-----------------------------------|


  E  E  E  E  E     E  E  E  E  E  E  E  E  E  E  E   
-----------------|-----------------------------------|
-----------------|-----------------------------------|
-----------------|--1--1--1--4--4--4-----------------|
--1--1--1--4--4--|--------------------2--2--2--2--2--|
-----------------|-----------------------------------|


  E  E  E  E  E  E  E  E  E  E  E     E  E  E  E  E   
-----------------------------------|-----------------|
-----------------------------------|-----------------|
-----------------------------------|-----------------|
--0--0--0--0--0--0--3--3--3--3--3--|--1--1--1--4--4--|
-----------------------------------|-----------------|


  E  E  E  E  E  E  E  E  E  E  E     E  E  E  E  E  E  E  E  E  E  E   
-----------------------------------|-----------------------------------|
-----------------------------------|-----------------------------------|
--1--1--1--4--4--4-----------------|-----------------------------------|
--------------------2--2--2--2--2--|--0--0--0--0--0--0--3--3--3--3--3--|
-----------------------------------|-----------------------------------|


  E  E  E  E  E     E  E  E  E  E  E  E  E  E  E   
-----------------|--------------------------------|
-----------------|--------------------------------|
-----------------|--------------------------------|
--1--1--1--4--4--|--1--1--1--4--4--1--1--1--4--4--|
-----------------|--------------------------------|


  E  E  E  E  E  E  E  E  E  E     E  E  E  E  E  E  E  E  E  E   
--------------------------------|--------------------------------|
--------------------------------|--------------------------------|
--------------------------------|--------------------------------|
--1--1--1--4--4--1--1--1--4--4--|--4--4--4--7--7--4--4--4--7--7--|
--------------------------------|--------------------------------|


  E  E  E  E  E  E  E  E  E  E     E  E  E  E  E  E  E  E  E  E   
--------------------------------|--------------------------------|
--------------------------------|--------------------------------|
--------------------------------|--------------------------------|
--4--4--4--7--7--4--4--4--7--7--|--1--1--1--4--4--1--1--1--4--4--|
--------------------------------|--------------------------------|


  E  E  E  E  E  E  E  E  E  E     E  E  E  E  E  E  E  E  E  E   
--------------------------------|--------------------------------|
--------------------------------|--------------------------------|
--------------------------------|--------------------------------|
--1--1--1--4--4--1--1--1--4--4--|--4--4--4--7--7--4--4--4--7--7--|
--------------------------------|--------------------------------|


  E  E  E  E  E  E  E  E  E  E     E  E  E  E  E  E  E  E  E  E  E   
--------------------------------|-----------------------------------|
--------------------------------|-----------------------------------|
--------------------------------|-----------------------------------|
--4--4--4--7--7--4--4--4--7--7--|--------------------2--2--2--2--2--|
--------------------------------|-----------------------------------|


  E  E  E  E  E  E  E  E  E  E  E     E  E  E  E  E   
-----------------------------------|-----------------|
-----------------------------------|-----------------|
-----------------------------------|-----------------|
--0--0--0--0--0--0--3--3--3--3--3--|--1--1--1--4--4--|
-----------------------------------|-----------------|


  E  E  E  E  E  E  E  E  E  E  E     E  E  E  E  E  E  E  E  E  E  E   
-----------------------------------|-----------------------------------|
-----------------------------------|-----------------------------------|
--1--1--1--4--4--4-----------------|-----------------------------------|
--------------------2--2--2--2--2--|--0--0--0--0--0--0--3--3--3--3--3--|
-----------------------------------|-----------------------------------|


                         |--3--|                    |--3--|             
  E  E  E  E  E     Q    E  E  E  Q    Q       Q    E  E  E  Q    Q     
-----------------|--------------------------|--------------------------|
-----------------|--------------------------|--------------------------|
-----------------|--------------------------|--------------------------|
--1--1--1--4--4--|--8----8--8--8--8----7----|--8----8--8--8--8----9----|
-----------------|--------------------------|--------------------------|


       |--3--|               |--3--|                  
  Q    E  E  E  Q    Q       E  E  E  Q    Q    Q     
--------------------------|--------------------------|
--------------------------|--------------------------|
--------------------------|--------------------------|
--8----8--8--8--8----4----|--4--4--4--3----2----3----|
--------------------------|--------------------------|


  |--3--|  |--3--|  |--3--|  3              |--3--|             
  E  E  E  E  E  E  E  E  E  Q.        Q    E  E  E  Q    Q     
------------------------------------|--------------------------|
------------------------------------|--------------------------|
--4--4--4--4--4--4--4--4--4--3------|--------------------------|
------------------------------------|--8----8--8--8--8----7----|
------------------------------------|--------------------------|


       |--3--|                    |--3--|             
  Q    E  E  E  Q    Q       Q    E  E  E  Q    Q     
--------------------------|--------------------------|
--------------------------|--------------------------|
--------------------------|--------------------------|
--8----8--8--8--8----9----|--8----8--8--8--8----4----|
--------------------------|--------------------------|


                             |---3---|  |---3---|  |----3----|     
  E  E  E  E  E  E  E  E     E   E   E  E   E   E  Q    Q    Q     
--------------------------|---------------------------------------|
--------------------------|---------------------------------------|
--0--1--0-----------------|------------------------1--------------|
-----------4--3--1--------|-------------1h--3h--4-------3----4----|
--------------------4--3--|--1h--3h--4----------------------------|


                              |--3--|                    |--3--|             
  H         Q    Q       Q    E  E  E  Q    Q       Q    E  E  E  Q    Q     
----------------------|--------------------------|--------------------------|
----------------------|--------------------------|--------------------------|
----------------------|--------------------------|--------------------------|
--3~--------8----7----|--8----8--8--8--8----9----|--8----8--8--8--8----4----|
----------------------|--------------------------|--------------------------|


  |--3--|                    |--3--|  |--3--|  |--3--|  3       
  E  E  E  Q    Q    Q       E  E  E  E  E  E  E  E  E  Q.      
--------------------------|------------------------------------|
--------------------------|------------------------------------|
--------------------------|--4--4--4--4--4--4--4--4--4--3------|
--4--4--4--3----2----3----|------------------------------------|
--------------------------|------------------------------------|


       |--3--|                    |--3--|             
  Q    E  E  E  Q    Q       Q    E  E  E  Q    Q     
--------------------------|--------------------------|
--------------------------|--------------------------|
--------------------------|--------------------------|
--8----8--8--8--8----7----|--8----8--8--8--8----9----|
--------------------------|--------------------------|


       |--3--|                                                              
  Q    E  E  E  Q    Q    Q    Q                       Q    Q    Q    Q     
------------------------------------|-------|-------|----------------------|
------------------------------------|-------|-------|----------------------|
------------------------------------|-------|-------|----------------------|
--8----8--8--8--8----4---------4----|-------|-------|--2----3----2----3----|
------------------------------------|-------|-------|----------------------|


                              |--3--|                     
  Q    Q    Q    Q       Q    E  E  E  Q    Q             
----------------------|--------------------------|-------|
----------------------|--------------------------|-------|
----------------------|--------------------------|-------|
--5----6----5----2----|--L----2--2--2--2----2----|-------|
----------------------|--------------------------|-------|


                                                     |--3--|             
  Q    Q    Q    Q       Q    Q    Q    Q       Q    E  E  E  Q    Q     
----------------------|----------------------|--------------------------|
----------------------|----------------------|--------------------------|
----------------------|----------------------|--------------------------|
--2----3----2----3----|--5----6----5----1----|--L----1--1--1--1----1----|
----------------------|----------------------|--------------------------|


          Q    Q    Q    Q       Q    Q    Q    Q     
-------|----------------------|----------------------|
-------|----------------------|----------------------|
-------|----------------------|----------------------|
-------|--2----3----2----3----|--5----6----5----2----|
-------|----------------------|----------------------|


       |--3--|                                            
  Q    E  E  E  Q    Q               Q    Q    Q    Q     
--------------------------|-------|----------------------|
--------------------------|-------|----------------------|
--------------------------|-------|----------------------|
--L----2--2--2--2----2----|-------|--2----3----2----3----|
--------------------------|-------|----------------------|


  Q    Q    Q    Q                       Q    Q    Q    Q     
----------------------|-------|-------|----------------------|
----------------------|-------|-------|----------------------|
----------------------|-------|-------|----------------------|
--5----6----5----1----|-------|-------|--2----3----2----3----|
----------------------|-------|-------|----------------------|


                              |--3--|                                      
  Q    Q    Q    Q       Q    E  E  E  Q    Q       E  E  Q    E  E  Q     
----------------------|--------------------------|------------------------|
----------------------|--------------------------|------------------------|
----------------------|--------------------------|------------------------|
--5----6----5----2----|--L----2--2--2--2----2----|--2--2--2----2--2--2----|
----------------------|--------------------------|------------------------|


                                                     |--3--|             
  Q    Q    Q    Q       Q    Q    Q    Q       Q    E  E  E  Q    Q     
----------------------|----------------------|--------------------------|
----------------------|----------------------|--------------------------|
----------------------|----------------------|--------------------------|
--2----3----2----3----|--5----6----5----1----|--L----1--1--1--1----1----|
----------------------|----------------------|--------------------------|


  E  E  Q    E  E  Q       Q    Q    Q    Q       Q    Q    Q    Q     
------------------------|----------------------|----------------------|
------------------------|----------------------|----------------------|
------------------------|----------------------|----------------------|
--1--1--1----1--1--1----|--2----3----2----3----|--5----6----5----2----|
------------------------|----------------------|----------------------|


       |--3--|                                                             
  Q    E  E  E  Q    Q       E  E  Q    E  E  Q       Q    Q    Q    Q     
--------------------------|------------------------|----------------------|
--------------------------|------------------------|----------------------|
--------------------------|------------------------|----------------------|
--L----2--2--2--2----2----|--2--2--2----2--2--2----|--2----3----2----3----|
--------------------------|------------------------|----------------------|


  Q    Q    Q    Q       W                           Q    E  Q    Q.      
----------------------|-------------------|-------|----------------------|
----------------------|-------------------|-------|----------------------|
----------------------|-------------------|-------|----------------------|
--5----6----5----1----|-------------------|-------|--0-------0-----------|
----------------------|-------------------|-------|----------------------|


  Q    Q    E  Q    E     Q    Q    Q    E  E     E  E  E  E  E  E  Q     
-----------------------|-----------------------|-------------------------|
-----------------------|-----------------------|-------------------------|
-----------------------|-----------------------|-------------------------|
-------0-------0-------|------------0-------0--|--L-----------------0----|
-----------------------|-----------------------|-------------------------|


  Q    E  Q    Q.        Q    Q    E  Q    E     Q    Q    Q    E  E   
----------------------|-----------------------|-----------------------|
----------------------|-----------------------|-----------------------|
----------------------|-----------------------|-----------------------|
--0-------0-----------|-------0-------0-------|------------0-------0--|
----------------------|-----------------------|-----------------------|


  E  E  E  E  E  E  E  E     Q    E  Q    Q.        Q    Q    E  E  Q     
--------------------------|----------------------|-----------------------|
--------------------------|----------------------|-----------------------|
--------------------------|----------------------|-----------------------|
--L-----------------------|--0-------0-----------|------------------0----|
--------------------------|----------------------|-----------------------|


  E  Q    E  Q    E  E     E  E  E  E  E  E  Q       Q    E  Q    E  Q     
------------------------|-------------------------|-----------------------|
------------------------|-------------------------|-----------------------|
------------------------|-------------------------|-----------------------|
-----0-------0----------|--------------------0----|--0-------0-------0----|
------------------------|-------------------------|-----------------------|


  Q    Q    E  Q    E     Q    Q    Q    E  E     E  E  E  E  E  E  E  E   
-----------------------|-----------------------|--------------------------|
-----------------------|-----------------------|--------------------------|
-----------------------|-----------------------|--------------------------|
-------0-------0-------|------------0-------0--|--L-----------------------|
-----------------------|-----------------------|--------------------------|


  Q.     Q.     Q       H        Q.     E     Q.     Q.     Q     
---------------------|---------------------|---------------------|
---------------------|---------------------|---------------------|
---------------------|---------------------|---------------------|
---------------------|---------------------|---------------------|
--3------3------3----|--3--------3------3--|--3------3------3----|


  Q    Q    E  Q    E     Q.     Q.     Q       H        H         
-----------------------|---------------------|--------------------|
-----------------------|---------------------|--------------------|
-----------------------|---------------------|--------------------|
-----------------------|---------------------|--------------------|
--L----3----3--3----3--|--6------6------6----|--6--------6--------|


                                                  |--3--|              
  Q    H        Q       Q    H.              Q    E  E  E  Q    E  E   
---------------------|--------------------|---------------------------|
---------------------|--------------------|---------------------------|
---------------------|--------------------|--3-------------3-------3--|
---------------------|--------------------|-------4--4--4-------4-----|
--L----6--------6----|--6----6------------|---------------------------|


                                     |--3--|               
  E  E   E  E  E   E   Q        Q    E  E  E  Q    E  E    
-----------------------------|----------------------------|
-----------------------------|----------------------------|
-----3s--5-----5s--9---------|--3-------------3-------3s--|
--4---------6---------10\----|-------4--4--4-------4------|
-----------------------------|----------------------------|


                              |--3--|                          
  E  E  E   E   Q        Q    E  E  E  E  E  E  E   E   Q      
----------------------|---------------------------------------|
----------------------|---------------------------------------|
--5-----5s--9---------|--3-------------3--5-----5s--9---------|
-----6---------10\----|-------4--4--4--------6---------10\----|
----------------------|---------------------------------------|


  Q    E  E  E  E  E  E     E  E  E  E  E  E  Q       Q    Q    Q.     E   
-------------------------|-------------------------|----------------------|
-------------------------|-------------------------|------------5------4--|
--3-------3--------3-----|--3-----------------5----|--3-------------------|
-------4-----4--6-----4--|-----4--6--0--1--4-------|-------4--------------|
-------------------------|-------------------------|----------------------|


  E  E  E  E  E  E  Q       Q.     Q.     Q       E  E  Q    H         
-------------------------|---------------------|----------------------|
--5--4-------------------|---------------------|----------------------|
--------5--6--5--3-------|--3------6-----------|-----1-------1--------|
--------------------4----|----------------0----|--L-------------------|
-------------------------|---------------------|----------------------|


        |--3--|        |--3--|                              
   Q    E  E  E   Q    E  E  E     E   Q    E  E  E   Q     
--------------------------------|--------------------------|
--------------------------------|--------------------------|
--------------------------------|--------------------------|
--12----0--0--0--12----0--0--0--|--0--12----0--0--0--12----|
--------------------------------|--------------------------|


        |--3--|        |--3--|                              
   Q    E  E  E   Q    E  E  E     E   Q    E  E  E   Q     
--------------------------------|--------------------------|
--------------------------------|--------------------------|
--------------------------------|--------------------------|
--12----0--0--0--12----0--0--0--|--0--12----0--0--0--12----|
--------------------------------|--------------------------|


        |--3--|        |--3--|                              
   Q    E  E  E   Q    E  E  E     E   Q    E  E  E   Q     
--------------------------------|--------------------------|
--------------------------------|--------------------------|
--------------------------------|--------------------------|
--12----0--0--0--12----0--0--0--|--0--12----0--0--0--12----|
--------------------------------|--------------------------|


        |--3--|        |--3--|                              
   Q    E  E  E   Q    E  E  E     E   Q    E  E  E   Q     
--------------------------------|--------------------------|
--------------------------------|--------------------------|
--------------------------------|--------------------------|
--12----0--0--0--12----0--0--0--|--0--12----0--0--0--12----|
--------------------------------|--------------------------|


       |--3--|                                       
  Q    E  E  E  Q    E  E     E  Q    E  E  E  Q     
---------------------------|------------------------|
---------------------------|------------------------|
--3-------------3----------|-----3-------------3----|
---------------------------|------------------------|
-------3--3--3-------3--3--|--3-------3--3--3-------|


       |--3--|                                       
  Q    E  E  E  Q    E  E     E  Q    E  E  E  Q     
---------------------------|------------------------|
---------------------------|------------------------|
--3-------------3----------|-----3-------------3----|
---------------------------|------------------------|
-------3--3--3-------3--3--|--3-------3--3--3-------|


       |--3--|                                                                 
  Q    E  E  E  Q    E  E     E  Q    E  E  E  Q       E  E  E  Q    E  E  E   
---------------------------|------------------------|-------------------------|
---------------------------|------------------------|-------------------------|
--9----6--6--6--9----6--6--|--6--9----6--6--6--9----|--6--6--6--9----6--6--6--|
---------------------------|------------------------|-------------------------|
---------------------------|------------------------|-------------------------|


       |--3--|  |--3--|               |--3--|              
  Q    E  E  E  E  E  E  Q       Q    E  E  E  Q    E  E   
------------------------------|---------------------------|
------------------------------|---------------------------|
--9----6--6--6--6--6--6--9----|--3-------------3-------3--|
------------------------------|-------4--4--4-------4-----|
------------------------------|---------------------------|


                                     |--3--|               
  E  E   E  E  E   E   Q        Q    E  E  E  Q    E  E    
-----------------------------|----------------------------|
-----------------------------|----------------------------|
-----3s--5-----5s--9---------|--3-------------3-------3s--|
--4---------6---------10\----|-------4--4--4-------4------|
-----------------------------|----------------------------|


                              |--3--|                          
  E  E  E   E   Q        Q    E  E  E  E  E  E  E   E   Q      
----------------------|---------------------------------------|
----------------------|---------------------------------------|
--5-----5s--9---------|--3-------------3--5-----5s--9---------|
-----6---------10\----|-------4--4--4--------6---------10\----|
----------------------|---------------------------------------|


  Q    E  E  E  E  E  E     E  E  E  E  E  E  Q       Q    Q    Q.     E   
-------------------------|-------------------------|----------------------|
-------------------------|-------------------------|------------5------4--|
--3-------3--------3-----|--3-----------------5----|--3-------------------|
-------4-----4--6-----4--|-----4--6--0--1--4-------|-------4--------------|
-------------------------|-------------------------|----------------------|


  E  E  E  E  E  E  E  E     E  E  E   E  E  E  E  E  E  E   
--------------------------|---------------------------------|
--5--4--0--3--0--3--2-----|--2-----3s--7-----7--6-----6-----|
-----------------------4--|-----4---------8--------7-----7--|
--------------------------|---------------------------------|
--------------------------|---------------------------------|


         |--3--|                                         
  Q.     E  E  E  Q    E     E  Q     E  E  E  E  E  E   
--------------------------|-----------------------------|
--------------------------|-----------------------------|
--------------------------|-----------------------------|
--6------6--6--6--6----6--|--6--6\----1--1--1--1--1--1--|
--------------------------|-----------------------------|


  E  E  E  E  E  E  E  E     E  E  E  E  E  E  E  E   
--------------------------|--------------------------|
--------------------------|--------------------------|
--------------------------|--------------------------|
--1--0--0--0--0--0--0--0--|--0--0--0--0--0--0--0--0--|
--------------------------|--------------------------|


  E  E  E  E  E  E  E  E     E  E  E  E  E  E   E   E   
--------------------------|----------------------------|
--------------------------|----------------------------|
--5--5--4--4--5--5--7--7--|--8--8--7--7--8--8--10--10--|
--------------------------|----------------------------|
--------------------------|----------------------------|


   H          E   E   E   E      E   E   E   E   E   E   Q      
-----------------------------|---------------------------------|
-----------------------------|---------------------------------|
--10b--------11--11--11--11--|--11--11--11--11--10--10--10~----|
-----------------------------|---------------------------------|
-----------------------------|---------------------------------|


  E  E  E  E   E  E  E  E     E  E  E    E  E   E  E  E   
---------------------------|-----------------------------|
---------------------------|-----------------------------|
-----5-----5s--8-----8-----|--8-----8s--11-----11--------|
--3-----3---------6-----6--|-----6----------9------9-----|
---------------------------|-----------------------------|


  E  E  E  E  E  E  E  E     E  E  E  E   E   E   E   E   
--------------------------|------------------------------|
--------------------------|------------------------------|
--------------------------|------------------------------|
--9--9--9--9--6--6--6--6--|--6--6--6--6--10--10--10--10--|
--------------------------|------------------------------|


  E  E  E  E  E  E   E   E     E  E  E  E  E  E  E  E   
----------------------------|--------------------------|
----------------------------|--------------------------|
--------------------10--10--|--------------------------|
--9--9--9--9--6--6----------|--9--9--9--9--6--6--6--6--|
----------------------------|--------------------------|


  E  E  E  E   E   E   E   E     E  E  E  E  E  E  E  E   
------------------------------|--------------------------|
------------------------------|--------------------------|
------------------------------|--------------------------|
--6--6--6--6--10--10--10--10--|--9--9--9--9--6--6--6--6--|
------------------------------|--------------------------|


  S  S  E  E  E  E  E  E  E     H        H           E  E  Q    Q    Q     
-----------------------------|--------------------|-----------------------|
--5h-6p-5-----5--------------|--------------------|-----------------------|
-----------8-----8--6--5--3--|--2--------2--------|--2--2--1----2----3----|
-----------------------------|--------------------|-----------------------|
-----------------------------|--------------------|-----------------------|


  S  S  E  E  E  E  E  E  E     H        H           E  E  Q    Q    Q     
-----------------------------|--------------------|-----------------------|
--4h-5p-4--2--4--2-----------|--------------------|-----------------------|
--------------------5--4--3--|--2--------2--------|--2--2--1----2----3----|
-----------------------------|--------------------|-----------------------|
-----------------------------|--------------------|-----------------------|


  S  S  E  E  E  E  E  E  E     H        H           E  E  Q    Q    Q     
-----------------------------|--------------------|-----------------------|
--5h-6p-5-----5--------------|--------------------|-----------------------|
-----------8-----8--6--5--4--|--3--------3--------|--3--3--2----3----4----|
-----------------------------|--------------------|-----------------------|
-----------------------------|--------------------|-----------------------|


  S  S E  E  E  E   E   E   E     H        H           E  E  Q    Q    Q     
-------------------------------|--------------------|-----------------------|
-------------------------------|--------------------|-----------------------|
--9-10-9--7--9--7--------------|--2--------2--------|--2--2--1----2----3----|
-------------------12--11--10--|--------------------|-----------------------|
-------------------------------|--------------------|-----------------------|


       |--3--|                    |--3--|             
  Q    E  E  E  Q    Q       Q    E  E  E  Q    Q     
--------------------------|--------------------------|
--------------------------|--------------------------|
--------------------------|--------------------------|
--8----8--8--8--8----7----|--8----8--8--8--8----9----|
--------------------------|--------------------------|


       |--3--|               |--3--|                  
  Q    E  E  E  Q    Q       E  E  E  Q    Q    Q     
--------------------------|--------------------------|
--------------------------|--------------------------|
--------------------------|--------------------------|
--8----8--8--8--8----4----|--4--4--4--3----2----3----|
--------------------------|--------------------------|


  |--3--|  |--3--|  |--3--|  3              |--3--|             
  E  E  E  E  E  E  E  E  E  Q.        Q    E  E  E  Q    Q     
------------------------------------|--------------------------|
------------------------------------|--------------------------|
--4--4--4--4--4--4--4--4--4--3------|--------------------------|
------------------------------------|--8----8--8--8--8----7----|
------------------------------------|--------------------------|


       |--3--|                    |--3--|             
  Q    E  E  E  Q    Q       Q    E  E  E  Q    Q     
--------------------------|--------------------------|
--------------------------|--------------------------|
--------------------------|--------------------------|
--8----8--8--8--8----9----|--8----8--8--8--8----4----|
--------------------------|--------------------------|


                             |---3---|  |---3---|  |----3----|     
  E  E  E  E  E  E  E  E     E   E   E  E   E   E  Q    Q    Q     
--------------------------|---------------------------------------|
--------------------------|---------------------------------------|
--0--1--0-----------------|------------------------1--------------|
-----------4--3--1--------|-------------1h--3h--4-------3----4----|
--------------------4--3--|--1h--3h--4----------------------------|


                              |--3--|                    |--3--|             
  H         Q    Q       Q    E  E  E  Q    Q       Q    E  E  E  Q    Q     
----------------------|--------------------------|--------------------------|
----------------------|--------------------------|--------------------------|
----------------------|--------------------------|--------------------------|
--3~--------8----7----|--8----8--8--8--8----9----|--8----8--8--8--8----4----|
----------------------|--------------------------|--------------------------|


  |--3--|                         |--3--|             
  E  E  E  Q    Q    Q       Q    E  E  E  Q    Q     
--------------------------|--------------------------|
--------------------------|--------------------------|
--------------------------|--------------------------|
--4--4--4--3----2----3----|--8----8--8--8--8----7----|
--------------------------|--------------------------|


       |--3--|                    |--3--|                               
  Q    E  E  E  Q    Q       Q    E  E  E  Q    Q    Q    Q             
--------------------------|------------------------------------|-------|
--------------------------|------------------------------------|-------|
--------------------------|------------------------------------|-------|
--8----8--8--8--8----9----|--8----8--8--8--8----4---------4----|-------|
--------------------------|------------------------------------|-------|


  Q.     H        E    
---------------------||
---------------------||
---------------------||
--8------------------||
---------------------||




Duration Legend
---------------
W - whole
H - half
Q - quarter
E - 8th
S - 16th
T - 32nd
X - 64th
. - note dotted
|-n-|  - n-tuplets


Tablature Legend
----------------
L - tied note
x - dead note
g - grace note
(n) - ghost note
> - accentuded note
NH - natural harmonic
AH - artificial harmonic
TH - tapped harmonic
SH - semi harmonic
PH - pitch harmonic
h - hammer on
p - pull off
b - bend
br - bendRelease
pb - preBend
pbr - preBendRelease
brb - bendReleaseBend
\n/ - tremolo bar dip
\n - tremolo bar dive
-/n - tremolo bar Release up
/n\ - tremolo bar inverted dip
/n - tremolo bar return
-\n - tremolo bar Release down
S - shift slide
s - legato slide
/ -  slide into from below or out of upwards
\ -  slide into from above or out of downwards
~ - vibrato
W - wide vibrato
tr - trill
TP - tremolo picking
T - tapping
S - slap
P - pop
< - fade in
^ - brush up
v - brush down
comments
We did not receive enough feedback on this tab! Please rate:
print report bad tab
1 2 3 4 5
I want to post or [tab]
guest
You may want to rate the tab now too:
select rating
Please do not post tabs as comments. Select "correction" instead!