Oops, an error
Loading. Please wait.

Coldly Calculated Design Tab

ver1
ver1

Whole song

Interactive

More versions @911Tabs.com
10,279 views 9 this week
no commentswrite comment
1 2 3 4 5
accurate
x 5
Autoscroll
+/-
esc
set tempo
stop
Contributor
Hey! There's an official Ultimate Guitar app which is ideal
for learning songs when you're away from computer. Get the app
WARNING: You are trying to view
                                    content from Ultimate-Guitar.com
                                    in an unauthorized application,
                                    which is prohibited.

                                    Please use an official Ultimate
                                    Guitar Tabs application for iPhone,
                                    iPad or Android to access legitimate
                                    chords, guitar, bass, and drum tabs
                                    from Ultimate-Guitar.com database.

                                    Type "ultimate guitar tabs" in Apple
                                    App Store's or Android Market's
                                    search to find the application.
                           Coldly Calculated Design                             


                                                                    The Faceless


ALL credit of this tab goes to L0G05. 
I just took it from Guitar pro, and made it a normal tab.


Duration Legend
---------------
W - whole
H - half
Q - quarter
E - 8th
S - 16th
T - 32nd
X - 64th
. - note dotted
|-n-|  - n-tuplets


Tablature Legend
----------------
L - tied note
x - dead note
g - grace note
(n) - ghost note
> - accentuded note
NH - natural harmonic
AH - artificial harmonic
TH - tapped harmonic
SH - semi harmonic
PH - pitch harmonic
h - hammer on
p - pull off
b - bend
br - bendRelease
pb - preBend
pbr - preBendRelease
brb - bendReleaseBend
\n/ - tremolo bar dip
\n - tremolo bar dive
-/n - tremolo bar Release up
/n\ - tremolo bar inverted dip
/n - tremolo bar return
-\n - tremolo bar Release down
S - shift slide
s - legato slide
/ -  slide into from below or out of upwards
\ -  slide into from above or out of downwards
~ - vibrato
W - wide vibrato
tr - trill
TP - tremolo picking
T - tapping
S - slap
P - pop
< - fade in
^ - brush up
v - brush down

Guitar 1:



           PM PM PM PM                      PM PM PM PM              
      Q    S  S  S  S   Q     Q        Q    S  S  S  S   Q     Q     
D||--------------------------------|--------------------------------|
A||--10----------------10-----9----|--10----------------10----11----|
F||---x-----------------x-----x----|---x-----------------x-----x----|
C||--11----------------11----10----|--11----------------11----12----|
G||---8-----------------8-----7----|---8-----------------8-----9----|
C||---8----8--8--8--8---8-----7----|---8----8--8--8--8---8-----9----|


        PM PM PM PM               PM PM PM PM PM   PM   PM    
   Q    S  S  S  S   Q    Q       S  S  S  S  Q    Q    Q     
-------------------------------|-----------------------------|
--10----------------10----6----|-----------------------------|
---x-----------------x----x----|-----------------------------|
--11----------------11----7----|-----------------------------|
---8-----------------8----4----|--------------3----2----3----|
---8----8--8--8--8---8----4----|--4--4--4--4--3----2----3----|


                                        PM PM PM PM              
  S S S S S S S S S S S S Q        Q    S  S  S  S   Q     Q     
-------------------------------|--------------------------------|
-------------------------------|--10----------------10-----9----|
-------------------------------|---x-----------------x-----x----|
-------------------------------|--11----------------11----10----|
--4-4-4-4-4-4-4-4-4-4-4-4-3----|---8-----------------8-----7----|
-------------------------------|---8----8--8--8--8---8-----7----|


        PM PM PM PM                      PM PM PM PM             
   Q    S  S  S  S   Q     Q        Q    S  S  S  S   Q    Q     
--------------------------------|-------------------------------|
--10----------------10----11----|--10----------------10----6----|
---x-----------------x-----x----|---x-----------------x----x----|
--11----------------11----12----|--11----------------11----7----|
---8-----------------8-----9----|---8-----------------8----4----|
---8----8--8--8--8---8-----9----|---8----8--8--8--8---8----4----|


                             |--3--|  |--3--|  |----3----|     
  E  E  E  E  E  E  E  E     E  E  E  E  E  E  Q    Q    Q     
--------------------------|-----------------------------------|
--------------------------|-----------------------------------|
--2--3--2-----------------|--------------------2----3----5----|
-----------4--3--1--------|-----------1--3--4-----------------|
--------------------4--3--|--1--3--4--------------------------|
--------------------------|-----------------------------------|


                                 PM PM PM PM              
  H          Q     Q        Q    S  S  S  S   Q     Q     
------------------------|--------------------------------|
--2~--------10-----9----|--10----------------10----11----|
-------------x-----x----|---x-----------------x-----x----|
------------11----10----|--11----------------11----12----|
-------------8-----7----|---8-----------------8-----9----|
-------------8-----7----|---8----8--8--8--8---8-----9----|


        PM PM PM PM               PM PM PM PM PM   PM   PM    
   Q    S  S  S  S   Q    Q       S  S  S  S  Q    Q    Q     
-------------------------------|-----------------------------|
--10----------------10----6----|-----------------------------|
---x-----------------x----x----|-----------------------------|
--11----------------11----7----|-----------------------------|
---8-----------------8----4----|--------------3----2----3----|
---8----8--8--8--8---8----4----|--4--4--4--4--3----2----3----|


                                        PM PM PM PM              
  S S S S S S S S S S S S Q        Q    S  S  S  S   Q     Q     
-------------------------------|--------------------------------|
-------------------------------|--10----------------10-----9----|
-------------------------------|---x-----------------x-----x----|
-------------------------------|--11----------------11----10----|
--4-4-4-4-4-4-4-4-4-4-4-4-3----|---8-----------------8-----7----|
-------------------------------|---8----8--8--8--8---8-----7----|


        PM PM PM PM                      PM PM PM PM                       
   Q    S  S  S  S   Q     Q        Q    S  S  S  S   Q    Q    Q    Q     
--------------------------------|-----------------------------------------|
--10----------------10----11----|--10----------------10-------------------|
---x-----------------x-----x----|---x-----------------x----5---------5----|
--11----------------11----12----|--11----------------11----7---------7----|
---8-----------------8-----9----|---8-----------------8----4---------4----|
---8----8--8--8--8---8-----9----|---8----8--8--8--8---8----4---------4----|


  Q    Q    Q    Q       H.            
----------------------|---------------|
----------------------|---------------|
----------------------|---------------|
-------4----L----L----|--L------------|
--8---------L----L----|--L------------|
----------------------|---------------|


  sound weird in gp with the links                                
  PM                               PM PM PM PM PM PM PM PM PM PM  
  E                                E  E  E  E  E  E  E  E  E  E   
-----------------------------------------------------------------|
-----------------------------------------------------------------|
--------------------------------------0--------0-----------0--L--|
-----------------------------------3--L-----3--L--------6--L--6--|
--1--------------------------------L--L--4--L--L-----4--L--L-----|
--------------------------------------------------2--L--L--------|


  PM PM PM PM PM PM PM PM PM PM PM    PM PM PM PM PM  
  E  E  E  E  E  E  E  E  E  E  E     E  E  E  E  E   
-----------------------------------|-----------------|
-----------------------------------|-----------------|
-----------2--L--L-----------2--L--|-----------------|
--------6--L--6--L--------6--L--6--|--------3-----3--|
-----0--L--L-----0-----3--L--L-----|-----1--L--------|
--0--L--L-----------3--L--L--------|--1--L-----4-----|


  PM PM PM PM PM PM PM PM PM PM PM    PM PM PM PM PM PM PM PM PM PM PM  
  E  E  E  E  E  E  E  E  E  E  E     E  E  E  E  E  E  E  E  E  E  E   
-----------------------------------|-----------------------------------|
-----------------------------------|-----------------------------------|
--------0--------0-----------0--L--|-----------2--L--L-----------2--L--|
-----3--L-----3--L--------6--L--6--|--------6--L--6--L--------6--L--6--|
--1--L--L--4--L--L-----4--L--L-----|-----0--L--L-----0-----3--L--L-----|
--------------------2--L--L--------|--0--L--L-----------3--L--L--------|


                    not so sure about this part                                
  PM PM PM PM PM                                                               
  E  E  E  E  E     E                           E  E  E  E  E  E  E  E  E  E   
-----------------|------------------------------------------------------------|
-----------------|------------------------------------------------------------|
-----------------|--0---------------------------0--0--0--0--0-----------------|
--------3-----3--|--3---------------------------3--3--3--3--3--6--6--6--6--6--|
-----1--L--------|--1---------------------------1--1--4--4--4--4--4--4--4--4--|
--1--L-----4-----|---------------------------------------------2--2--2--2--2--|


  E  E  E  E  E  E  E  E  E  E  E     E  E  E  E  E   
-----------------------------------|-----------------|
-----------------------------------|-----------------|
--2--2--2--2--2--2-----------------|-----------------|
--6--6--6--6--6--6--6--6--6--6--6--|--3--3--3--3--3--|
--0--0--0--0--0--0--3--3--3--3--3--|--1--1--1--1--1--|
--0--0--0--0--0--0--3--3--3--3--3--|--1--1--1--4--4--|


  E  E  E  E  E  E  E  E  E  E  E     E  E  E  E  E  E  E  E  E  E  E   
-----------------------------------|-----------------------------------|
-----------------------------------|-----------------------------------|
--0--0--0--0--0--0-----------------|--2--2--2--2--2--2-----------------|
--3--3--3--3--3--3--6--6--6--6--6--|--6--6--6--6--6--6--6--6--6--6--6--|
--1--1--1--4--4--4--4--4--4--4--4--|--0--0--0--0--0--0--3--3--3--3--3--|
--------------------2--2--2--2--2--|--0--0--0--0--0--0--3--3--3--3--3--|


                    PM PM    PM    PM PM    PM     
  E  E  E  E  E     E  E  E  E  E  E  E  E  E  E   
-----------------|--------------------------------|
-----------------|--------------------------------|
-----------------|--------------------------------|
--3--3--3--3--3--|--------3-----3--------3-----3--|
--1--1--1--1--1--|-----1--------------1-----------|
--1--1--1--4--4--|--1--L-----4-----1--L-----4-----|


  PM PM    PM    PM PM    PM       PM PM    PM    PM PM    PM     
  E  E  E  E  E  E  E  E  E  E     E  E  E  E  E  E  E  E  E  E   
--------------------------------|--------------------------------|
--------------------------------|--------------------------------|
--------------------------------|--------------------------------|
--------3-----3--------3-----3--|--------6-----6--------6-----6--|
-----1--------------1-----------|-----4--------------4-----------|
--1--L-----4-----1--L-----4-----|--4--L-----7-----4--L-----7-----|


  PM PM    PM    PM PM    PM       PM PM    PM    PM PM    PM     
  E  E  E  E  E  E  E  E  E  E     E  E  E  E  E  E  E  E  E  E   
--------------------------------|--------------------------------|
--------------------------------|--------------------------------|
--------------------------------|--------------------------------|
--------6-----6--------6-----6--|--------3-----3--------3-----3--|
-----4--------------4-----------|-----1--------------1-----------|
--4--L-----7-----4--L-----7-----|--1--L-----4-----1--L-----4-----|


  PM PM    PM    PM PM    PM       PM PM    PM    PM PM    PM     
  E  E  E  E  E  E  E  E  E  E     E  E  E  E  E  E  E  E  E  E   
--------------------------------|--------------------------------|
--------------------------------|--------------------------------|
--------------------------------|--------------------------------|
--------3-----3--------3-----3--|--------6-----6--------6-----6--|
-----1--------------1-----------|-----4--------------4-----------|
--1--L-----4-----1--L-----4-----|--4--L-----7-----4--L-----7-----|


  PM PM    PM    PM PM    PM                                         
  E  E  E  E  E  E  E  E  E  E     E  E  E  E  E  E  E  E  E  E  E   
--------------------------------|-----------------------------------|
--------------------------------|-----------------------------------|
--------------------------------|--0--0--0--0--0--0-----------------|
--------6-----6--------6-----6--|--3--3--3--3--3--3--6--6--6--6--6--|
-----4--------------4-----------|--1--1--1--4--4--4--4--4--4--4--4--|
--4--L-----7-----4--L-----7-----|--------------------2--2--2--2--2--|


  E  E  E  E  E  E  E  E  E  E  E     E  E  E  E  E   
-----------------------------------|-----------------|
-----------------------------------|-----------------|
--2--2--2--2--2--2-----------------|-----------------|
--6--6--6--6--6--6--6--6--6--6--6--|--3--3--3--3--3--|
--0--0--0--0--0--0--3--3--3--3--3--|--1--1--1--1--1--|
--0--0--0--0--0--0--3--3--3--3--3--|--1--1--1--4--4--|


  PM PM PM PM PM PM PM PM PM PM PM    PM PM PM PM PM PM PM PM PM PM PM  
  E  E  E  E  E  E  E  E  E  E  E     E  E  E  E  E  E  E  E  E  E  E   
-----------------------------------|-----------------------------------|
-----------------------------------|-----------------------------------|
--------0--------0-----------0--L--|-----------2--L--L-----------2--L--|
-----3--L-----3--L--------6--L--6--|--------6--L--6--L--------6--L--6--|
--1--L--L--4--L--L-----4--L--L-----|-----0--L--L-----0-----3--L--L-----|
--------------------2--L--L--------|--0--L--L-----------3--L--L--------|


  PM PM PM PM PM          PM PM PM PM              
  E  E  E  E  E      Q    S  S  S  S   Q     Q     
-----------------|--------------------------------|
-----------------|--10----------------10-----9----|
-----------------|---x-----------------x-----x----|
--------3-----3--|--11----------------11----10----|
-----1--L--------|---8-----------------8-----7----|
--1--L-----4-----|---8----8--8--8--8---8-----7----|


        PM PM PM PM                      PM PM PM PM             
   Q    S  S  S  S   Q     Q        Q    S  S  S  S   Q    Q     
--------------------------------|-------------------------------|
--10----------------10----11----|--10----------------10----6----|
---x-----------------x-----x----|---x-----------------x----x----|
--11----------------11----12----|--11----------------11----7----|
---8-----------------8-----9----|---8-----------------8----4----|
---8----8--8--8--8---8-----9----|---8----8--8--8--8---8----4----|


  PM PM PM PM PM   PM   PM                                    
  S  S  S  S  Q    Q    Q       S S S S S S S S S S S S Q     
-----------------------------|-------------------------------|
-----------------------------|-------------------------------|
-----------------------------|-------------------------------|
-----------------------------|-------------------------------|
--------------3----2----3----|--4-4-4-4-4-4-4-4-4-4-4-4-3----|
--4--4--4--4--3----2----3----|-------------------------------|


        PM PM PM PM                      PM PM PM PM              
   Q    S  S  S  S   Q     Q        Q    S  S  S  S   Q     Q     
--------------------------------|--------------------------------|
--10----------------10-----9----|--10----------------10----11----|
---x-----------------x-----x----|---x-----------------x-----x----|
--11----------------11----10----|--11----------------11----12----|
---8-----------------8-----7----|---8-----------------8-----9----|
---8----8--8--8--8---8-----7----|---8----8--8--8--8---8-----9----|


        PM PM PM PM                                        
   Q    S  S  S  S   Q    Q       E  E  E  E  E  E  E  E   
-------------------------------|--------------------------|
--10----------------10----6----|--------------------------|
---x-----------------x----x----|--2--3--2-----------------|
--11----------------11----7----|-----------4--3--1--------|
---8-----------------8----4----|--------------------4--3--|
---8----8--8--8--8---8----4----|--------------------------|


  |--3--|  |--3--|  |----3----|                              
  E  E  E  E  E  E  Q    Q    Q       H          Q     Q     
-----------------------------------|------------------------|
-----------------------------------|--2~--------10-----9----|
--------------------2----3----5----|-------------x-----x----|
-----------1--3--4-----------------|------------11----10----|
--1--3--4--------------------------|-------------8-----7----|
-----------------------------------|-------------8-----7----|


        PM PM PM PM                      PM PM PM PM             
   Q    S  S  S  S   Q     Q        Q    S  S  S  S   Q    Q     
--------------------------------|-------------------------------|
--10----------------10----11----|--10----------------10----6----|
---x-----------------x-----x----|---x-----------------x----x----|
--11----------------11----12----|--11----------------11----7----|
---8-----------------8-----9----|---8-----------------8----4----|
---8----8--8--8--8---8-----9----|---8----8--8--8--8---8----4----|


  PM PM PM PM PM   PM   PM                                    
  S  S  S  S  Q    Q    Q       S S S S S S S S S S S S Q     
-----------------------------|-------------------------------|
-----------------------------|-------------------------------|
-----------------------------|-------------------------------|
-----------------------------|-------------------------------|
--------------3----2----3----|--4-4-4-4-4-4-4-4-4-4-4-4-3----|
--4--4--4--4--3----2----3----|-------------------------------|


        PM PM PM PM                      PM PM PM PM              
   Q    S  S  S  S   Q     Q        Q    S  S  S  S   Q     Q     
--------------------------------|--------------------------------|
--10----------------10-----9----|--10----------------10----11----|
---x-----------------x-----x----|---x-----------------x-----x----|
--11----------------11----10----|--11----------------11----12----|
---8-----------------8-----7----|---8-----------------8-----9----|
---8----8--8--8--8---8-----7----|---8----8--8--8--8---8-----9----|


        PM PM PM PM                                                          
   Q    S  S  S  S   Q    Q    Q    Q       Q    Q    Q    Q       H         
-----------------------------------------|----------------------|-----------|
--10----------------10-------------------|----------------------|-----------|
---x-----------------x----5---------5----|----------------------|-----------|
--11----------------11----7---------7----|-------4----L----L----|--L--------|
---8-----------------8----4---------4----|--8---------L----L----|--L--------|
---8----8--8--8--8---8----4---------4----|----------------------|-----------|


       PM   PM   PM                                  PM PM PM PM   PM    
                                                     |--3--|             
  Q    Q    Q    Q       Q    Q    Q    Q       Q    E  E  E  Q    Q     
----------------------|----------------------|--------------------------|
----------------------|----------------------|--------------------------|
----------------------|----------------------|--------------------------|
--2----3----2----3----|--5----6----5----2----|--L-----------------------|
--1----2----1----2----|--4----5----4----1----|--L----1--1--1--1----1----|
--2----3----2----3----|--5----6----5----2----|--L----2--2--2--2----2----|


                              PM   PM   PM                           
  Q    Q    Q    Q       Q    Q    Q    Q       Q    Q    Q    Q     
----------------------|----------------------|----------------------|
----------------------|----------------------|----------------------|
--0----L----L----L----|----------------------|----------------------|
-------2----L----L----|--2----3----2----3----|--5----6----5----4----|
------------1----L----|--1----2----1----2----|--4----5----4----1----|
-----------------2----|--2----3----2----3----|--5----6----5----1----|


       PM PM PM PM   PM                                  PM   PM   PM    
       |--3--|                                                           
  Q    E  E  E  Q    Q       Q    Q    Q    Q       Q    Q    Q    Q     
--------------------------|----------------------|----------------------|
--------------------------|----------------------|----------------------|
--------------------------|--0----L--------------|----------------------|
--L-----------------------|-------4----L----L----|--2----3----2----3----|
--L----1--1--1--1----1----|------------1----L----|--1----2----1----2----|
--L----1--1--1--1----1----|-----------------1----|--2----3----2----3----|


                              PM PM PM PM   PM                           
                              |--3--|                                    
  Q    Q    Q    Q       Q    E  E  E  Q    Q       Q    Q    Q    Q     
----------------------|--------------------------|----------------------|
----------------------|--------------------------|----------------------|
----------------------|--------------------------|--0----L----L----L----|
--5----6----5----2----|--L-----------------------|-------2----L----L----|
--4----5----4----1----|--L----1--1--1--1----1----|------------1----L----|
--5----6----5----2----|--L----2--2--2--2----2----|-----------------2----|


       PM   PM   PM                                           
  Q    Q    Q    Q       Q    Q    Q    Q                     
----------------------|----------------------|-------|-------|
----------------------|----------------------|-------|-------|
----------------------|----------------------|-------|-------|
--2----3----2----3----|--5----6----5----4----|-------|-------|
--1----2----1----2----|--4----5----4----1----|-------|-------|
--2----3----2----3----|--5----6----5----1----|-------|-------|


       PM   PM   PM                                  PM PM PM PM   PM    
                                                     |--3--|             
  Q    Q    Q    Q       Q    Q    Q    Q       Q    E  E  E  Q    Q     
----------------------|----------------------|--------------------------|
----------------------|----------------------|--------------------------|
----------------------|----------------------|--------------------------|
--2----3----2----3----|--5----6----5----2----|--L-----------------------|
--1----2----1----2----|--4----5----4----1----|--L----1--1--1--1----1----|
--2----3----2----3----|--5----6----5----2----|--L----2--2--2--2----2----|


  PM PM PM   PM PM PM           PM   PM   PM                           
  E  E  Q    E  E  Q       Q    Q    Q    Q       Q    Q    Q    Q     
------------------------|----------------------|----------------------|
------------------------|----------------------|----------------------|
------------------------|----------------------|----------------------|
------------------------|--2----3----2----3----|--5----6----5----4----|
--1--1--1----1--1--1----|--1----2----1----2----|--4----5----4----1----|
--2--2--2----2--2--2----|--2----3----2----3----|--5----6----5----1----|


       PM PM PM PM   PM      PM PM PM   PM PM PM           PM   PM   PM    
       |--3--|                                                             
  Q    E  E  E  Q    Q       E  E  Q    E  E  Q       Q    Q    Q    Q     
--------------------------|------------------------|----------------------|
--------------------------|------------------------|----------------------|
--------------------------|------------------------|----------------------|
--L-----------------------|------------------------|--2----3----2----3----|
--L----1--1--1--1----1----|--1--1--1----1--1--1----|--1----2----1----2----|
--L----1--1--1--1----1----|--1--1--1----1--1--1----|--2----3----2----3----|


                              PM PM PM PM   PM      PM PM PM   PM PM PM    
                              |--3--|                                      
  Q    Q    Q    Q       Q    E  E  E  Q    Q       E  E  Q    E  E  Q     
----------------------|--------------------------|------------------------|
----------------------|--------------------------|------------------------|
----------------------|--------------------------|------------------------|
--5----6----5----2----|--L-----------------------|------------------------|
--4----5----4----1----|--L----1--1--1--1----1----|--1--1--1----1--1--1----|
--5----6----5----2----|--L----2--2--2--2----2----|--2--2--2----2--2--2----|


       PM   PM   PM                                                       
  Q    Q    Q    Q       Q    Q    Q    Q       W                         
----------------------|----------------------|-------------------|-------|
----------------------|----------------------|-------------------|-------|
----------------------|----------------------|-------------------|-------|
--2----3----2----3----|--5----6----5----4----|-------------------|-------|
--1----2----1----2----|--4----5----4----1----|-------------------|-------|
--2----3----2----3----|--5----6----5----1----|-------------------|-------|


                        ^                                      
  H        Q    Q       W                    W                 
---------------------|--3~----------------|--L----------------|
---------------------|--1~----------------|--L----------------|
----------------3----|--L-----------------|--L----------------|
-----------0----L----|--L-----------------|--L----------------|
---------------------|--------------------|-------------------|
--0--------L----L----|--------------------|-------------------|


                                            not sure about here  
                                            ^                    
  W                   H        Q    Q       W                    
--L----------------|---------------------|--5~------------------|
--L----------------|---------------------|--3-------------------|
--L----------------|----------------2----|--2-------------------|
--L----------------|-----------0----L----|--L-------------------|
-------------------|---------------------|----------------------|
-------------------|--0--------L----L----|----------------------|


  W                   W                   H        Q    Q     
--L----------------|--L----------------|---------------------|
--L----------------|--L----------------|---------------------|
--L----------------|--L----------------|----------------3----|
--L----------------|--L----------------|-----------0----L----|
-------------------|-------------------|---------------------|
-------------------|-------------------|--0--------L----L----|


  ^                                                          
  W                    W                   W                 
--3~----------------|--L----------------|--L----------------|
--1~----------------|--L----------------|--L----------------|
--L~----------------|--L----------------|--L----------------|
--L-----------------|--L----------------|--L----------------|
--------------------|-------------------|-------------------|
--------------------|-------------------|-------------------|


                        not sure about here                      
                        ^                                        
  H        Q    Q       W                      W                 
---------------------|--5~------------------|--L----------------|
---------------------|--3~------------------|--L----------------|
----------------2----|--2~------------------|--L----------------|
-----------0----L----|--L-------------------|--L----------------|
---------------------|----------------------|-------------------|
--0--------L----L----|----------------------|-------------------|


                                            ^                  
  W                   Q.     Q.     Q       W                  
--L----------------|---------------------|--------------------|
--L----------------|---------------------|--4~----------------|
--L----------------|----------------7----|--L~----------------|
--L----------------|---------5------L----|--L~----------------|
-------------------|--3------L------L----|--L~----------------|
-------------------|---------------------|--------------------|


  W                   W                   Q.     Q.      Q     
-------------------|-------------------|----------------------|
--L----------------|--L----------------|----------------------|
--L----------------|--L----------------|----------------10----|
--L----------------|--L----------------|---------8-------L----|
--L----------------|--L----------------|--6------L-------L----|
-------------------|-------------------|----------------------|


   ^                                                          
   W                    W                   W                 
---------------------|-------------------|-------------------|
---7~----------------|--L----------------|--L----------------|
---L~----------------|--L----------------|--L----------------|
---L~----------------|--L----------------|--L----------------|
---L~----------------|--L----------------|--L----------------|
---------------------|-------------------|-------------------|


       PM PM PM PM      PM       PM        PM                
  Q    S  S  S  S  Q    E  E     E  E   E  E  E   E   Q      
------------------------------|-----------------------------|
------------------------------|-----------------------------|
------------------------------|-----------------------------|
------------------------------|-----------------------------|
--3----------------3-------3--|-----3s--5-----5s--9---------|
-------4--4--4--4-------4-----|--4---------6---------10\----|


       PM PM PM PM      PM           PM                
  Q    S  S  S  S  Q    E  E      E  E  E   E   Q      
-------------------------------|----------------------|
-------------------------------|----------------------|
-------------------------------|----------------------|
-------------------------------|----------------------|
--3----------------3-------3s--|--5-----5s--9---------|
-------4--4--4--4-------4------|-----6---------10\----|


       PM PM PM PM        PM                                      PM  
  Q    S  S  S  S  E   E  E  E   E   Q        Q    E  E  E  E  E  E   
-------------------------------------------|-------------------------|
-------------------------------------------|-------------------------|
-------------------------------------------|-------------------------|
-------------------------------------------|-------------------------|
--3----------------3s--5-----5s--9---------|--3-------3--------3-----|
-------4--4--4--4---------6---------10\----|-------4-----4--6-----4--|


  E  E  E  E  E  E  Q       Q    Q    Q.     E     E  E  E  E  E  E  Q     
-------------------------|----------------------|-------------------------|
-------------------------|----------------------|-------------------------|
-------------------------|----------------------|-------------------------|
-------------------------|------------5------4--|--5--4-------------------|
--3-----------------5----|--3-------------------|--------5--6--5--3-------|
-----4--6--0--1--4-------|-------4--------------|--------------------4----|


  not sure                                     
  Q.       Q.     Q       E  E  Q    H         
-----------------------|----------------------|
-----------------------|-----6-------6--------|
-----------------------|-----5-------5--------|
--1--------5-----------|-----8-------8--------|
--3--------6-----------|-----5-------5--------|
------------------0----|--L-------------------|


  not sure about this chord (see notes)                               
                                        PM PM PM PM      PM PM PM PM  
  Q                                     S  S  S  S  Q    S  S  S  S   
---------------------------------------------------------------------|
--8-------------------------------------------------8----------------|
--5-------------------------------------------------5----------------|
--8-------------------------------------------------8----------------|
--5-------------------------------------------------5----------------|
----------------------------------------0--0--0--0-------0--0--0--0--|


                           sure about this one                               
  PM      PM PM PM                             PM PM PM PM      PM PM PM PM  
  E  Q    E  E  E  Q       Q                   S  S  S  S  Q    S  S  S  S   
------------------------|--5-------------------------------5----------------|
-----8-------------8----|--5-------------------------------5----------------|
-----5-------------5----|--7-------------------------------7----------------|
-----8-------------8----|--7-------------------------------7----------------|
-----5-------------5----|--5-------------------------------5----------------|
--0-------0--0--0-------|----------------------0--0--0--0-------0--0--0--0--|


  PM      PM PM PM              PM PM PM PM      PM PM PM PM  
  E  Q    E  E  E  Q       Q    S  S  S  S  Q    S  S  S  S   
-----5-------------5----|------------------------------------|
-----5-------------5----|--8----------------8----------------|
-----7-------------7----|--5----------------5----------------|
-----7-------------7----|--8----------------8----------------|
-----5-------------5----|--5----------------5----------------|
--0-------0--0--0-------|-------0--0--0--0-------0--0--0--0--|


  PM      PM PM PM              PM PM PM PM      PM PM PM PM  
  E  Q    E  E  E  Q       Q    S  S  S  S  Q    S  S  S  S   
------------------------|--5----------------5----------------|
-----8-------------8----|--5----------------5----------------|
-----5-------------5----|--7----------------7----------------|
-----8-------------8----|--7----------------7----------------|
-----5-------------5----|--5----------------5----------------|
--0-------0--0--0-------|-------0--0--0--0-------0--0--0--0--|


  PM      PM PM PM                PM PM PM PM        PM PM  
  E  Q    E  E  E  Q        Q     S  S  S  S   Q     E  E   
-----5-------------5----|--(3)----------------(3)----------|
-----5-------------5----|---3------------------3-----------|
-----7-------------7----|---7------------------7-----------|
-----7-------------7----|---5------------------5-----------|
-----5-------------5----|---3-----3--3--3--3---3-----3--3--|
--0-------0--0--0-------|----------------------------------|


  PM        PM PM PM                  PM PM PM PM        PM PM  
  E   Q     E  E  E   Q         Q     S  S  S  S   Q     E  E   
-----(3)-------------(3)----|--(3)----------------(3)----------|
------3---------------3-----|---4------------------4-----------|
------7---------------7-----|---7------------------7-----------|
------5---------------5-----|---5------------------5-----------|
--3---3-----3--3--3---3-----|---3-----3--3--3--3---3-----3--3--|
----------------------------|----------------------------------|


  PM        PM PM PM                 PM PM PM PM       PM PM PM PM  
  E   Q     E  E  E   Q         Q    S  S  S  S   Q    S  S  S  S   
-----(3)-------------(3)----|--------------------------------------|
------4---------------4-----|---7-----------------7----------------|
------7---------------7-----|--10----------------10----------------|
------5---------------5-----|---8-----------------8----------------|
--3---3-----3--3--3---3-----|---6----6--6--6--6---6----6--6--6--6--|
----------------------------|--------------------------------------|


  PM PM       PM PM PM PM PM PM        
  S  S   Q    S  S  S  S  S  S   Q     
--------------------------------------|
---------7-----------------------7----|
--------10----------------------10----|
---------8-----------------------8----|
--6--6---6----6--6--6--6--6--6---6----|
--------------------------------------|


  PM PM PM PM PM PM       PM PM PM PM PM PM  
  S  S  S  S  S  S   Q    S  S  S  S  S  S   
--------------------------------------------|
---------------------7----------------------|
--------------------10----------------------|
---------------------8----------------------|
--6--6--6--6--6--6---6----6--6--6--6--6--6--|
--------------------------------------------|


        PM PM PM PM PM PM PM PM               PM PM PM PM      PM     
   Q    S  S  S  S  S  S  S  S   Q       Q    S  S  S  S  Q    E  E   
--------------------------------------|------------------------------|
---7-----------------------------7----|------------------------------|
--10----------------------------10----|------------------------------|
---8-----------------------------8----|------------------------------|
---6----6--6--6--6--6--6--6--6---6----|--3----------------3-------3--|
--------------------------------------|-------4--4--4--4-------4-----|


  PM        PM                       PM PM PM PM      PM      
  E  E   E  E  E   E   Q        Q    S  S  S  S  Q    E  E    
-----------------------------|-------------------------------|
-----------------------------|-------------------------------|
-----------------------------|-------------------------------|
-----------------------------|-------------------------------|
-----3s--5-----5s--9---------|--3----------------3-------3s--|
--4---------6---------10\----|-------4--4--4--4-------4------|


     PM                       PM PM PM PM        PM                
  E  E  E   E   Q        Q    S  S  S  S  E   E  E  E   E   Q      
----------------------|-------------------------------------------|
----------------------|-------------------------------------------|
----------------------|-------------------------------------------|
----------------------|-------------------------------------------|
--5-----5s--9---------|--3----------------3s--5-----5s--9---------|
-----6---------10\----|-------4--4--4--4---------6---------10\----|


                      PM                                                   
  Q    E  E  E  E  E  E     E  E  E  E  E  E  Q       Q    Q    Q.     E   
-------------------------|-------------------------|----------------------|
-------------------------|-------------------------|----------------------|
-------------------------|-------------------------|----------------------|
-------------------------|-------------------------|------------5------4--|
--3-------3--------3-----|--3-----------------5----|--3-------------------|
-------4-----4--6-----4--|-----4--6--0--1--4-------|-------4--------------|


              PM       PM       PM        PM       PM    PM  
  E  E  E  E  E  E  E  E     E  E  E   E  E  E  E  E  E  E   
--------------------------|---------------------------------|
--------------------------|---------------------------------|
--------------------------|---------------------------------|
--5--4-----3-----3--2-----|--2-----3s--7-----7--6-----6-----|
--------5-----5--------4--|-----4---------8--------7-----7--|
--------------------------|---------------------------------|


         PM PM PM PM      PM PM    PM PM       PM PM PM PM PM      
  Q.     S  S  S  S  Q    S  S     S  S  Q     E  E  E  E  E  E    
--------------------------------|---------------------------------|
--------------------------------|---------------------------------|
--------------------------------|---------------------------------|
--6------------------6----------|--------6\-----------------------|
--6------------------6----------|--------6\-----------------------|
--6------6--6--6--6--6----6--6--|--6--6--6\----1--1--1--1--1--1p--|


     PM PM PM PM PM PM PM    PM PM PM PM PM PM PM PM  
  E  E  E  E  E  E  E  E     E  E  E  E  E  E  E  E   
--------------------------|--------------------------|
--------------------------|--------------------------|
--------------------------|--------------------------|
--------------------------|--------------------------|
--------------------------|--------------------------|
--0--0--0--0--0--0--0--0--|--0--0--0--0--0--0--0--0--|


  S S S S S S S S S S S S S S S S    S S S S S S S S S S S S  S  S  S  S  
----------------------------------|--------------------------------------|
----------------------------------|--------------------------------------|
----------------------------------|--------------------------------------|
----------------------------------|--------------------------------------|
--5-5-5-5-4-4-4-4-5-5-5-5-7-7-7-7-|--8-8-8-8-7-7-7-7-8-8-8-8-10-10-10-10-|
----------------------------------|--------------------------------------|


   H          S  S  S  S  S  S  S  S  
-------------------------------------|
-------------------------------------|
-------------------------------------|
-------------------------------------|
--10b--------11-11-11-11-11-11-11-11-|
-------------------------------------|


                                                PM    PM        PM    PM  
   S  S  S  S  S  S  S  S  S  S  S  S  Q        E  E  E  E   E  E  E  E   
---------------------------------------------|---------------------------|
---------------------------------------------|---------------------------|
---------------------------------------------|---------------------------|
---------------------------------------------|---------------------------|
--11-11-11-11-11-11-11-11-10-10-10-10-10~----|-----5-----5s--8-----8-----|
---------------------------------------------|--3-----3---------6-----6--|


     PM         PM            
  E  E  E    E  E   E  E  E   
-----------------------------|
-----------------------------|
-----------------------------|
-----------------------------|
--8-----8s--11-----11--------|
-----6----------9------9-----|


  PM PM PM PM PM PM PM PM PM PM PM PM PM PM PM PM  
  S  S  S  S  S  S  S  S  S  S  S  S  S  S  S  S   
--------------------------------------------------|
--------------------------------------------------|
--------------------------------------------------|
--------------------------------------------------|
--------------------------------------------------|
--9--9--9--9--9--9--9--9--6--6--6--6--6--6--6--6--|


  PM PM PM PM PM PM PM PM  PM PM PM PM PM PM PM PM 
  S  S  S  S  S  S  S  S   S  S  S  S  S  S  S  S  
--------------------------------------------------|
--------------------------------------------------|
--------------------------------------------------|
--------------------------------------------------|
--------------------------------------------------|
--6--6--6--6--6--6--6--6--10-10-10-10-10-10-10-10-|


  PM PM PM PM PM PM PM PM PM PM PM PM              
  S  S  S  S  S  S  S  S  S  S  S  S   S  S  S  S  
--------------------------------------------------|
--------------------------------------------------|
--------------------------------------------------|
--------------------------------------------------|
--------------------------------------10-10-10-10-|
--9--9--9--9--9--9--9--9--6--6--6--6--------------|


  PM PM PM PM PM PM PM PM PM PM PM PM PM PM PM PM  
  S  S  S  S  S  S  S  S  S  S  S  S  S  S  S  S   
--------------------------------------------------|
--------------------------------------------------|
--------------------------------------------------|
--------------------------------------------------|
--------------------------------------------------|
--9--9--9--9--9--9--9--9--6--6--6--6--6--6--6--6--|


  PM PM PM PM PM PM PM PM  PM PM PM PM PM PM PM PM 
  S  S  S  S  S  S  S  S   S  S  S  S  S  S  S  S  
--------------------------------------------------|
--------------------------------------------------|
--------------------------------------------------|
--------------------------------------------------|
--------------------------------------------------|
--6--6--6--6--6--6--6--6--10-10-10-10-10-10-10-10-|


  PM PM PM PM PM PM PM PM PM PM PM PM PM PM PM PM  
  S  S  S  S  S  S  S  S  S  S  S  S  S  S  S  S   
--------------------------------------------------|
--------------------------------------------------|
--------------------------------------------------|
--------------------------------------------------|
--------------------------------------------------|
--9--9--9--9--9--9--9--9--6--6--6--6--6--6--6--6--|


                                         ^         
  S  S  E  E  E  E  E  E  E     H        H         
-----------------------------|-----------2--------|
-----------------------------|-----------3--------|
-----------------------------|-----------4--------|
--5h-6p-5-----5--------------|-----------4--------|
-----------8-----8--6--5--3--|--2--------2--------|
-----------------------------|--------------------|


  PM PM PM PM                                               
  S  S  S  S  Q    Q    Q       S  S  E  E  E  E  E  E  E   
--------------1----2----3----|-----------------------------|
--------------2----3----4----|-----------------------------|
--------------3----4----5----|-----------------------------|
--------------3----4----5----|--4h-5p-4-----4--------------|
--2--2--2--2--1----2----3----|-----------7-----7--5--4--3--|
-----------------------------|-----------------------------|


           ^           PM PM PM PM                 
  H        H           S  S  S  S  Q    Q    Q     
-----------2--------|--------------1----2----3----|
-----------3--------|--------------2----3----4----|
-----------4--------|--------------3----4----5----|
-----------4--------|--------------3----4----5----|
--2--------2--------|--2--2--2--2--1----2----3----|
--------------------|-----------------------------|


                                         ^         
  S  S  E  E  E  E  E  E  E     H        H         
-----------------------------|-----------3--------|
-----------------------------|-----------4--------|
-----------------------------|-----------5--------|
--5h-6p-5-----5--------------|-----------5--------|
-----------8-----8--6--5--4--|--3--------3--------|
-----------------------------|--------------------|


  PM PM PM PM                                               
  S  S  S  S  Q    Q    Q       S  S  E  E  E  E  E  E  E   
--------------2----3----4----|-----------------------------|
--------------3----4----5----|-----------------------------|
--------------4----5----6----|-----------------------------|
--------------4----5----6----|--4h-5p-4-----4--------------|
--3--3--3--3--2----3----4----|-----------7-----7--5--4--3--|
-----------------------------|-----------------------------|


           ^           PM PM PM PM                 
  H        H           S  S  S  S  Q    Q    Q     
-----------2--------|--------------1----2----3----|
-----------3--------|--------------2----3----4----|
-----------4--------|--------------3----4----5----|
-----------4--------|--------------3----4----5----|
--2--------2--------|--2--2--2--2--1----2----3----|
--------------------|-----------------------------|


        PM PM PM PM                      PM PM PM PM              
   Q    S  S  S  S   Q     Q        Q    S  S  S  S   Q     Q     
--------------------------------|--------------------------------|
--10----------------10-----9----|--10----------------10----11----|
---x-----------------x-----x----|---x-----------------x-----x----|
--11----------------11----10----|--11----------------11----12----|
---8-----------------8-----7----|---8-----------------8-----9----|
---8----8--8--8--8---8-----7----|---8----8--8--8--8---8-----9----|


        PM PM PM PM               PM PM PM PM PM   PM   PM    
   Q    S  S  S  S   Q    Q       S  S  S  S  Q    Q    Q     
-------------------------------|-----------------------------|
--10----------------10----6----|-----------------------------|
---x-----------------x----x----|-----------------------------|
--11----------------11----7----|-----------------------------|
---8-----------------8----4----|--------------3----2----3----|
---8----8--8--8--8---8----4----|--4--4--4--4--3----2----3----|


                                        PM PM PM PM              
  S S S S S S S S S S S S Q        Q    S  S  S  S   Q     Q     
-------------------------------|--------------------------------|
-------------------------------|--10----------------10-----9----|
-------------------------------|---x-----------------x-----x----|
-------------------------------|--11----------------11----10----|
--4-4-4-4-4-4-4-4-4-4-4-4-3----|---8-----------------8-----7----|
-------------------------------|---8----8--8--8--8---8-----7----|


        PM PM PM PM                      PM PM PM PM             
   Q    S  S  S  S   Q     Q        Q    S  S  S  S   Q    Q     
--------------------------------|-------------------------------|
--10----------------10----11----|--10----------------10----6----|
---x-----------------x-----x----|---x-----------------x----x----|
--11----------------11----12----|--11----------------11----7----|
---8-----------------8-----9----|---8-----------------8----4----|
---8----8--8--8--8---8-----9----|---8----8--8--8--8---8----4----|


                             |--3--|  |--3--|  |----3----|     
  E  E  E  E  E  E  E  E     E  E  E  E  E  E  Q    Q    Q     
--------------------------|-----------------------------------|
--------------------------|-----------------------------------|
--2--3--2-----------------|--------------------2----3----5----|
-----------4--3--1--------|-----------1--3--4-----------------|
--------------------4--3--|--1--3--4--------------------------|
--------------------------|-----------------------------------|


                                 PM PM PM PM              
  H          Q     Q        Q    S  S  S  S   Q     Q     
------------------------|--------------------------------|
--2~--------10-----9----|--10----------------10----11----|
-------------x-----x----|---x-----------------x-----x----|
------------11----10----|--11----------------11----12----|
-------------8-----7----|---8-----------------8-----9----|
-------------8-----7----|---8----8--8--8--8---8-----9----|


        PM PM PM PM               PM PM PM PM PM   PM   PM    
   Q    S  S  S  S   Q    Q       S  S  S  S  Q    Q    Q     
-------------------------------|-----------------------------|
--10----------------10----6----|-----------------------------|
---x-----------------x----x----|-----------------------------|
--11----------------11----7----|-----------------------------|
---8-----------------8----4----|--------------3----2----3----|
---8----8--8--8--8---8----4----|--4--4--4--4--3----2----3----|


        PM PM PM PM                      PM PM PM PM              
   Q    S  S  S  S   Q     Q        Q    S  S  S  S   Q     Q     
--------------------------------|--------------------------------|
--10----------------10-----9----|--10----------------10----11----|
---x-----------------x-----x----|---x-----------------x-----x----|
--11----------------11----10----|--11----------------11----12----|
---8-----------------8-----7----|---8-----------------8-----9----|
---8----8--8--8--8---8-----7----|---8----8--8--8--8---8-----9----|


        PM PM PM PM                                              
   Q    S  S  S  S   Q    Q    Q    Q       Q    Q    Q    Q     
-----------------------------------------|----------------------|
--10----------------10-------------------|----------------------|
---x-----------------x----5---------5----|----------------------|
--11----------------11----7---------7----|-------4----L----L----|
---8-----------------8----4---------4----|--8---------L----L----|
---8----8--8--8--8---8----4---------4----|----------------------|


  Q.     H        E    
---------------------||
---------------------||
---------------------||
---------------------||
--8------------------||
--8------------------||













Guitar 2:



           PM PM PM PM                      PM PM PM PM              
      Q    S  S  S  S   Q     Q        Q    S  S  S  S   Q     Q     
D||--------------------------------|--------------------------------|
A||--10----------------10-----9----|--10----------------10----11----|
F||---x-----------------x-----x----|---x-----------------x-----x----|
C||--11----------------11----10----|--11----------------11----12----|
G||---8-----------------8-----7----|---8-----------------8-----9----|
C||---8----8--8--8--8---8-----7----|---8----8--8--8--8---8-----9----|


        PM PM PM PM               PM PM PM PM PM   PM   PM    
   Q    S  S  S  S   Q    Q       S  S  S  S  Q    Q    Q     
-------------------------------|-----------------------------|
--10----------------10----6----|-----------------------------|
---x-----------------x----x----|-----------------------------|
--11----------------11----7----|-----------------------------|
---8-----------------8----4----|--------------3----2----3----|
---8----8--8--8--8---8----4----|--4--4--4--4--3----2----3----|


                                        PM PM PM PM              
  S S S S S S S S S S S S Q        Q    S  S  S  S   Q     Q     
-------------------------------|--------------------------------|
-------------------------------|--10----------------10-----9----|
-------------------------------|---x-----------------x-----x----|
-------------------------------|--11----------------11----10----|
--4-4-4-4-4-4-4-4-4-4-4-4-3----|---8-----------------8-----7----|
-------------------------------|---8----8--8--8--8---8-----7----|


        PM PM PM PM                      PM PM PM PM             
   Q    S  S  S  S   Q     Q        Q    S  S  S  S   Q    Q     
--------------------------------|-------------------------------|
--10----------------10----11----|--10----------------10----6----|
---x-----------------x-----x----|---x-----------------x----x----|
--11----------------11----12----|--11----------------11----7----|
---8-----------------8-----9----|---8-----------------8----4----|
---8----8--8--8--8---8-----9----|---8----8--8--8--8---8----4----|


                             |--3--|  |--3--|  |----3----|     
  E  E  E  E  E  E  E  E     E  E  E  E  E  E  Q    Q    Q     
--------------------------|-----------------------------------|
--------------------------|-----------------------------------|
--5--6--5-----------------|--------------------5----6----8----|
-----------8--7--4--------|-----------4--6--8-----------------|
--------------------8--6--|--4--6--8--------------------------|
--------------------------|-----------------------------------|


                                 PM PM PM PM              
  H          Q     Q        Q    S  S  S  S   Q     Q     
------------------------|--------------------------------|
--6~--------10-----9----|--10----------------10----11----|
-------------x-----x----|---x-----------------x-----x----|
------------11----10----|--11----------------11----12----|
-------------8-----7----|---8-----------------8-----9----|
-------------8-----7----|---8----8--8--8--8---8-----9----|


        PM PM PM PM               PM PM PM PM PM   PM   PM    
   Q    S  S  S  S   Q    Q       S  S  S  S  Q    Q    Q     
-------------------------------|-----------------------------|
--10----------------10----6----|-----------------------------|
---x-----------------x----x----|-----------------------------|
--11----------------11----7----|-----------------------------|
---8-----------------8----4----|--------------3----2----3----|
---8----8--8--8--8---8----4----|--4--4--4--4--3----2----3----|


                                        PM PM PM PM              
  S S S S S S S S S S S S Q        Q    S  S  S  S   Q     Q     
-------------------------------|--------------------------------|
-------------------------------|--10----------------10-----9----|
-------------------------------|---x-----------------x-----x----|
--8-8-8-8-8-8-8-8-8-8-8-8-7----|--11----------------11----10----|
-------------------------------|---8-----------------8-----7----|
-------------------------------|---8----8--8--8--8---8-----7----|


        PM PM PM PM                      PM PM PM PM                       
   Q    S  S  S  S   Q     Q        Q    S  S  S  S   Q    Q    Q    Q     
--------------------------------|-----------------------------------------|
--10----------------10----11----|--10----------------10-------------------|
---x-----------------x-----x----|---x-----------------x----5---------5----|
--11----------------11----12----|--11----------------11----7---------7----|
---8-----------------8-----9----|---8-----------------8----4---------4----|
---8----8--8--8--8---8-----9----|---8----8--8--8--8---8----4---------4----|


                                          PM PM PM PM PM PM PM PM PM PM PM  
  Q    Q    Q     Q       H.              E  E  E  E  E  E  E  E  E  E  E   
-----------------------|---------------|-----------------------------------|
-----------------------|---------------|-----------------------------------|
------------6----------|--L------------|--------0--------0-----------0--L--|
-----------------10----|--L------------|-----3--L-----3--L--------6--L--6--|
-----------------------|---------------|--1--L--L--4--L--L-----4--L--L-----|
-----------------------|---------------|--------------------2--L--L--------|


  PM PM PM PM PM PM PM PM PM PM PM    PM PM PM PM PM  
  E  E  E  E  E  E  E  E  E  E  E     E  E  E  E  E   
-----------------------------------|-----------------|
-----------------------------------|-----------------|
-----------2--L--L-----------2--L--|-----------------|
--------6--L--6--L--------6--L--6--|--------3-----3--|
-----0--L--L-----0-----3--L--L-----|-----1--L--------|
--0--L--L-----------3--L--L--------|--1--L-----4-----|


  PM PM PM PM PM PM PM PM PM PM PM    PM PM PM PM PM PM PM PM PM PM PM  
  E  E  E  E  E  E  E  E  E  E  E     E  E  E  E  E  E  E  E  E  E  E   
-----------------------------------|-----------------------------------|
-----------------------------------|-----------------------------------|
--------0--------0-----------0--L--|-----------2--L--L-----------2--L--|
-----3--L-----3--L--------6--L--6--|--------6--L--6--L--------6--L--6--|
--1--L--L--4--L--L-----4--L--L-----|-----0--L--L-----0-----3--L--L-----|
--------------------2--L--L--------|--0--L--L-----------3--L--L--------|


  PM PM PM PM PM                                      
  E  E  E  E  E     E  E  E  E  E  E  E  E  E  E  E   
-----------------|-----------------------------------|
-----------------|-----------------------------------|
-----------------|--0--0--0--0--0--0-----------------|
--------3-----3--|--3--3--3--3--3--3--6--6--6--6--6--|
-----1--L--------|--1--1--1--4--4--4--4--4--4--4--4--|
--1--L-----4-----|--------------------2--2--2--2--2--|


  E  E  E  E  E  E  E  E  E  E  E     E  E  E  E  E   
-----------------------------------|-----------------|
-----------------------------------|-----------------|
--2--2--2--2--2--2-----------------|-----------------|
--6--6--6--6--6--6--6--6--6--6--6--|--3--3--3--3--3--|
--0--0--0--0--0--0--3--3--3--3--3--|--1--1--1--1--1--|
--0--0--0--0--0--0--3--3--3--3--3--|--1--1--1--4--4--|


  E  E  E  E  E  E  E  E  E  E  E     E  E  E  E  E  E  E  E  E  E  E   
-----------------------------------|-----------------------------------|
-----------------------------------|-----------------------------------|
--0--0--0--0--0--0-----------------|--2--2--2--2--2--2-----------------|
--3--3--3--3--3--3--6--6--6--6--6--|--6--6--6--6--6--6--6--6--6--6--6--|
--1--1--1--4--4--4--4--4--4--4--4--|--0--0--0--0--0--0--3--3--3--3--3--|
--------------------2--2--2--2--2--|--0--0--0--0--0--0--3--3--3--3--3--|


                    PM PM    PM    PM PM    PM     
  E  E  E  E  E     E  E  E  E  E  E  E  E  E  E   
-----------------|--------------------------------|
-----------------|--------------------------------|
-----------------|--------------------------------|
--3--3--3--3--3--|--------3-----3--------3-----3--|
--1--1--1--1--1--|-----1--------------1-----------|
--1--1--1--4--4--|--1--L-----4-----1--L-----4-----|


  PM PM    PM    PM PM    PM       PM PM    PM    PM PM    PM     
  E  E  E  E  E  E  E  E  E  E     E  E  E  E  E  E  E  E  E  E   
--------------------------------|--------------------------------|
--------------------------------|--------------------------------|
--------------------------------|--------------------------------|
--------3-----3--------3-----3--|--------6-----6--------6-----6--|
-----1--------------1-----------|-----4--------------4-----------|
--1--L-----4-----1--L-----4-----|--4--L-----7-----4--L-----7-----|


  PM PM    PM    PM PM    PM       PM PM    PM    PM PM    PM     
  E  E  E  E  E  E  E  E  E  E     E  E  E  E  E  E  E  E  E  E   
--------------------------------|--------------------------------|
--------------------------------|--------------------------------|
--------------------------------|--------------------------------|
--------6-----6--------6-----6--|--------3-----3--------3-----3--|
-----4--------------4-----------|-----1--------------1-----------|
--4--L-----7-----4--L-----7-----|--1--L-----4-----1--L-----4-----|


  PM PM    PM    PM PM    PM       PM PM    PM    PM PM    PM     
  E  E  E  E  E  E  E  E  E  E     E  E  E  E  E  E  E  E  E  E   
--------------------------------|--------------------------------|
--------------------------------|--------------------------------|
--------------------------------|--------------------------------|
--------3-----3--------3-----3--|--------6-----6--------6-----6--|
-----1--------------1-----------|-----4--------------4-----------|
--1--L-----4-----1--L-----4-----|--4--L-----7-----4--L-----7-----|


  PM PM    PM    PM PM    PM                                         
  E  E  E  E  E  E  E  E  E  E     E  E  E  E  E  E  E  E  E  E  E   
--------------------------------|-----------------------------------|
--------------------------------|-----------------------------------|
--------------------------------|-----------------------------------|
--------6-----6--------6-----6--|--------------------6--6--6--6--6--|
-----4--------------4-----------|--------------------4--4--4--4--4--|
--4--L-----7-----4--L-----7-----|--------------------2--2--2--2--2--|


  E  E  E  E  E  E  E  E  E  E  E     E  E  E  E  E   
-----------------------------------|-----------------|
-----------------------------------|-----------------|
--2--2--2--2--2--2-----------------|-----------------|
--6--6--6--6--6--6--6--6--6--6--6--|--3--3--3--3--3--|
--0--0--0--0--0--0--3--3--3--3--3--|--1--1--1--1--1--|
--0--0--0--0--0--0--3--3--3--3--3--|--1--1--1--4--4--|


  PM PM PM PM PM PM PM PM PM PM PM    PM PM PM PM PM PM PM PM PM PM PM  
  E  E  E  E  E  E  E  E  E  E  E     E  E  E  E  E  E  E  E  E  E  E   
-----------------------------------|-----------------------------------|
-----------------------------------|-----------------------------------|
--------0--------0-----------0--L--|-----------2--L--L-----------2--L--|
-----3--L-----3--L--------6--L--6--|--------6--L--6--L--------6--L--6--|
--1--L--L--4--L--L-----4--L--L-----|-----0--L--L-----0-----3--L--L-----|
--------------------2--L--L--------|--0--L--L-----------3--L--L--------|


  PM PM PM PM PM          PM PM PM PM              
  E  E  E  E  E      Q    S  S  S  S   Q     Q     
-----------------|--------------------------------|
-----------------|--10----------------10-----9----|
-----------------|---x-----------------x-----x----|
--------3-----3--|--11----------------11----10----|
-----1--L--------|---8-----------------8-----7----|
--1--L-----4-----|---8----8--8--8--8---8-----7----|


        PM PM PM PM                      PM PM PM PM             
   Q    S  S  S  S   Q     Q        Q    S  S  S  S   Q    Q     
--------------------------------|-------------------------------|
--10----------------10----11----|--10----------------10----6----|
---x-----------------x-----x----|---x-----------------x----x----|
--11----------------11----12----|--11----------------11----7----|
---8-----------------8-----9----|---8-----------------8----4----|
---8----8--8--8--8---8-----9----|---8----8--8--8--8---8----4----|


  PM PM PM PM PM   PM   PM                                    
  S  S  S  S  Q    Q    Q       S S S S S S S S S S S S Q     
-----------------------------|-------------------------------|
-----------------------------|-------------------------------|
-----------------------------|-------------------------------|
-----------------------------|-------------------------------|
--------------3----2----3----|--4-4-4-4-4-4-4-4-4-4-4-4-3----|
--4--4--4--4--3----2----3----|-------------------------------|


        PM PM PM PM                      PM PM PM PM              
   Q    S  S  S  S   Q     Q        Q    S  S  S  S   Q     Q     
--------------------------------|--------------------------------|
--10----------------10-----9----|--10----------------10----11----|
---x-----------------x-----x----|---x-----------------x-----x----|
--11----------------11----10----|--11----------------11----12----|
---8-----------------8-----7----|---8-----------------8-----9----|
---8----8--8--8--8---8-----7----|---8----8--8--8--8---8-----9----|


        PM PM PM PM                                        
   Q    S  S  S  S   Q    Q       E  E  E  E  E  E  E  E   
-------------------------------|--------------------------|
--10----------------10----6----|--------------------------|
---x-----------------x----x----|--5--6--5-----------------|
--11----------------11----7----|-----------8--7--4--------|
---8-----------------8----4----|--------------------8--6--|
---8----8--8--8--8---8----4----|--------------------------|


  |--3--|  |--3--|  |----3----|                              
  E  E  E  E  E  E  Q    Q    Q       H          Q     Q     
-----------------------------------|------------------------|
-----------------------------------|--6~--------10-----9----|
--------------------5----6----8----|-------------x-----x----|
-----------4--6--8-----------------|------------11----10----|
--4--6--8--------------------------|-------------8-----7----|
-----------------------------------|-------------8-----7----|


        PM PM PM PM                      PM PM PM PM             
   Q    S  S  S  S   Q     Q        Q    S  S  S  S   Q    Q     
--------------------------------|-------------------------------|
--10----------------10----11----|--10----------------10----6----|
---x-----------------x-----x----|---x-----------------x----x----|
--11----------------11----12----|--11----------------11----7----|
---8-----------------8-----9----|---8-----------------8----4----|
---8----8--8--8--8---8-----9----|---8----8--8--8--8---8----4----|


  PM PM PM PM PM   PM   PM                                    
  S  S  S  S  Q    Q    Q       S S S S S S S S S S S S Q     
-----------------------------|-------------------------------|
-----------------------------|-------------------------------|
-----------------------------|-------------------------------|
-----------------------------|--8-8-8-8-8-8-8-8-8-8-8-8-7----|
--------------3----2----3----|-------------------------------|
--4--4--4--4--3----2----3----|-------------------------------|


        PM PM PM PM                      PM PM PM PM              
   Q    S  S  S  S   Q     Q        Q    S  S  S  S   Q     Q     
--------------------------------|--------------------------------|
--10----------------10-----9----|--10----------------10----11----|
---x-----------------x-----x----|---x-----------------x-----x----|
--11----------------11----10----|--11----------------11----12----|
---8-----------------8-----7----|---8-----------------8-----9----|
---8----8--8--8--8---8-----7----|---8----8--8--8--8---8-----9----|


        PM PM PM PM                                                           
   Q    S  S  S  S   Q    Q    Q    Q       Q    Q    Q     Q       H         
-----------------------------------------|-----------------------|-----------|
--10----------------10-------------------|-----------------------|-----------|
---x-----------------x----5---------5----|------------6----------|--L--------|
--11----------------11----7---------7----|-----------------10----|--L--------|
---8-----------------8----4---------4----|-----------------------|-----------|
---8----8--8--8--8---8----4---------4----|-----------------------|-----------|


       PM   PM   PM                                  PM PM PM PM   PM    
                                                     |--3--|             
  Q    Q    Q    Q       Q    Q    Q    Q       Q    E  E  E  Q    Q     
----------------------|----------------------|--------------------------|
----------------------|----------------------|--------------------------|
----------------------|----------------------|--------------------------|
--2----3----2----3----|--5----6----5----2----|--L-----------------------|
--1----2----1----2----|--4----5----4----1----|--L----1--1--1--1----1----|
--2----3----2----3----|--5----6----5----2----|--L----2--2--2--2----2----|


               PM   PM   PM                           
          Q    Q    Q    Q       Q    Q    Q    Q     
-------|----------------------|----------------------|
-------|----------------------|----------------------|
-------|----------------------|----------------------|
-------|--2----3----2----3----|--5----6----5----4----|
-------|--1----2----1----2----|--4----5----4----1----|
-------|--2----3----2----3----|--5----6----5----1----|


       PM PM PM PM   PM                   PM   PM   PM    
       |--3--|                                            
  Q    E  E  E  Q    Q               Q    Q    Q    Q     
--------------------------|-------|----------------------|
--------------------------|-------|----------------------|
--------------------------|-------|----------------------|
--L-----------------------|-------|--2----3----2----3----|
--L----1--1--1--1----1----|-------|--1----2----1----2----|
--L----1--1--1--1----1----|-------|--2----3----2----3----|


                              PM PM PM PM   PM            
                              |--3--|                     
  Q    Q    Q    Q       Q    E  E  E  Q    Q             
----------------------|--------------------------|-------|
----------------------|--------------------------|-------|
----------------------|--------------------------|-------|
--5----6----5----2----|--L-----------------------|-------|
--4----5----4----1----|--L----1--1--1--1----1----|-------|
--5----6----5----2----|--L----2--2--2--2----2----|-------|


       PM   PM   PM                                                  
  Q    Q    Q    Q       Q    Q    Q    Q       Q    Q    Q    Q     
----------------------|----------------------|----------------------|
----------------------|----------------------|----------------------|
----------------------|----------------------|----------------------|
--2----3----2----3----|--5----6----5----4----|----------------------|
--1----2----1----2----|--4----5----4----1----|----------------------|
--2----3----2----3----|--5----6----5----1----|----------------------|


                              PM   PM   PM                           
  Q    Q    Q    Q       Q    Q    Q    Q       Q    Q    Q    Q     
----------------------|----------------------|----------------------|
----------------------|----------------------|----------------------|
----------------------|----------------------|----------------------|
----------------------|--2----3----2----3----|--5----6----5----2----|
----------------------|--1----2----1----2----|--4----5----4----1----|
----------------------|--2----3----2----3----|--5----6----5----2----|


       PM PM PM PM   PM      PM PM PM   PM PM PM           PM   PM   PM    
       |--3--|                                                             
  Q    E  E  E  Q    Q       E  E  Q    E  E  Q       Q    Q    Q    Q     
--------------------------|------------------------|----------------------|
--------------------------|------------------------|----------------------|
--------------------------|------------------------|----------------------|
--L-----------------------|------------------------|--2----3----2----3----|
--L----1--1--1--1----1----|--1--1--1----1--1--1----|--1----2----1----2----|
--L----2--2--2--2----2----|--2--2--2----2--2--2----|--2----3----2----3----|


                              PM PM PM PM   PM      PM PM PM   PM PM PM    
                              |--3--|                                      
  Q    Q    Q    Q       Q    E  E  E  Q    Q       E  E  Q    E  E  Q     
----------------------|--------------------------|------------------------|
----------------------|--------------------------|------------------------|
----------------------|--------------------------|------------------------|
--5----6----5----4----|--L-----------------------|------------------------|
--4----5----4----1----|--L----1--1--1--1----1----|--1--1--1----1--1--1----|
--5----6----5----1----|--L----1--1--1--1----1----|--1--1--1----1--1--1----|


       PM   PM   PM                                  PM PM PM PM   PM    
                                                     |--3--|             
  Q    Q    Q    Q       Q    Q    Q    Q       Q    E  E  E  Q    Q     
----------------------|----------------------|--------------------------|
----------------------|----------------------|--------------------------|
----------------------|----------------------|--------------------------|
--2----3----2----3----|--5----6----5----2----|--L-----------------------|
--1----2----1----2----|--4----5----4----1----|--L----1--1--1--1----1----|
--2----3----2----3----|--5----6----5----2----|--L----2--2--2--2----2----|


  PM PM PM   PM PM PM           PM   PM   PM                           
  E  E  Q    E  E  Q       Q    Q    Q    Q       Q    Q    Q    Q     
------------------------|----------------------|----------------------|
------------------------|----------------------|----------------------|
------------------------|----------------------|----------------------|
------------------------|--2----3----2----3----|--5----6----5----4----|
--1--1--1----1--1--1----|--1----2----1----2----|--4----5----4----1----|
--2--2--2----2--2--2----|--2----3----2----3----|--5----6----5----1----|


                                                    ^                  
  W                           H        Q    Q       W                  
-------------------|-------|---------------------|--3~----------------|
-------------------|-------|---------------------|--1~----------------|
-------------------|-------|----------------3----|--L-----------------|
-------------------|-------|-----------0----L----|--L-----------------|
-------------------|-------|---------------------|--------------------|
-------------------|-------|--0--------L----L----|--------------------|


  W                   W                   H        Q    Q     
--L----------------|--L----------------|---------------------|
--L----------------|--L----------------|---------------------|
--L----------------|--L----------------|----------------2----|
--L----------------|--L----------------|-----------0----L----|
-------------------|-------------------|---------------------|
-------------------|-------------------|--0--------L----L----|


  ^                                                          
  W                    W                   W                 
--5-----------------|--L----------------|--L----------------|
--3~----------------|--L----------------|--L----------------|
--2-----------------|--L----------------|--L----------------|
--L-----------------|--L----------------|--L----------------|
--------------------|-------------------|-------------------|
--------------------|-------------------|-------------------|


                        ^                                      
  H        Q    Q       W                    W                 
---------------------|--3~----------------|--L----------------|
---------------------|--1~----------------|--L----------------|
----------------3----|--L~----------------|--L----------------|
-----------0----L----|--L-----------------|--L----------------|
---------------------|--------------------|-------------------|
--0--------L----L----|--------------------|-------------------|


                                            ^                  
  W                   H        Q    Q       W                  
--L----------------|---------------------|--5~----------------|
--L----------------|---------------------|--3~----------------|
--L----------------|----------------2----|--2~----------------|
--L----------------|-----------0----L----|--L-----------------|
-------------------|---------------------|--------------------|
-------------------|--0--------L----L----|--------------------|


  W                   W                   Q.     Q.     Q     
--L----------------|--L----------------|---------------------|
--L----------------|--L----------------|---------------------|
--L----------------|--L----------------|----------------7----|
--L----------------|--L----------------|---------5------L----|
-------------------|-------------------|--3------L------L----|
-------------------|-------------------|---------------------|


  ^                                                          
  W                    W                   W                 
--------------------|-------------------|-------------------|
--4~----------------|--L----------------|--L----------------|
--L~----------------|--L----------------|--L----------------|
--L~----------------|--L----------------|--L----------------|
--L~----------------|--L----------------|--L----------------|
--------------------|-------------------|-------------------|


                          ^                                      
  Q.     Q.      Q        W                    W                 
----------------------|---------------------|-------------------|
----------------------|---7~----------------|--L----------------|
----------------10----|---L~----------------|--L----------------|
---------8-------L----|---L~----------------|--L----------------|
--6------L-------L----|---L~----------------|--L----------------|
----------------------|---------------------|-------------------|


                           PM PM PM PM      PM     
  W                   Q    S  S  S  S  Q    E  E   
-------------------|------------------------------|
--L----------------|------------------------------|
--L----------------|------------------------------|
--L----------------|------------------------------|
--L----------------|--3----------------3-------3--|
-------------------|-------4--4--4--4-------4-----|


  PM        PM                       PM PM PM PM      PM      
  E  E   E  E  E   E   Q        Q    S  S  S  S  Q    E  E    
-----------------------------|-------------------------------|
-----------------------------|-------------------------------|
-----------------------------|-------------------------------|
-----------------------------|-------------------------------|
-----3s--5-----5s--9---------|--3----------------3-------3s--|
--4---------6---------10\----|-------4--4--4--4-------4------|


     PM                       PM PM PM PM        PM                
  E  E  E   E   Q        Q    S  S  S  S  E   E  E  E   E   Q      
----------------------|-------------------------------------------|
----------------------|-------------------------------------------|
----------------------|-------------------------------------------|
----------------------|-------------------------------------------|
--5-----5s--9---------|--3----------------3s--5-----5s--9---------|
-----6---------10\----|-------4--4--4--4---------6---------10\----|


                      PM                                                   
  Q    E  E  E  E  E  E     E  E  E  E  E  E  Q       Q    Q    Q.     E   
-------------------------|-------------------------|----------------------|
-------------------------|-------------------------|----------------------|
-------------------------|-------------------------|----------------------|
-------------------------|-------------------------|------------5------4--|
--3-------3--------3-----|--3-----------------5----|--3-------------------|
-------4-----4--6-----4--|-----4--6--0--1--4-------|-------4--------------|


  E  E  E  E  E  E  Q       Q.     Q.     Q       E  E  Q    H         
-------------------------|---------------------|----------------------|
-------------------------|---------------------|-----6-------6--------|
-------------------------|---------------------|-----5-------5--------|
--5--4-------------------|--1------5-----------|-----8-------8--------|
--------5--6--5--3-------|--3------6-----------|-----5-------5--------|
--------------------4----|----------------0----|--L-------------------|


       PM PM PM PM      PM PM PM PM    PM      PM PM PM       
  Q    S  S  S  S  Q    S  S  S  S     E  Q    E  E  E  Q     
------------------------------------|------------------------|
--8----------------8----------------|-----8-------------8----|
--5----------------5----------------|-----5-------------5----|
--8----------------8----------------|-----8-------------8----|
--5----------------5----------------|-----5-------------5----|
-------0--0--0--0-------0--0--0--0--|--0-------0--0--0-------|


       PM PM PM PM      PM PM PM PM    PM      PM PM PM       
  Q    S  S  S  S  Q    S  S  S  S     E  Q    E  E  E  Q     
--5----------------5----------------|-----5-------------5----|
--5----------------5----------------|-----5-------------5----|
--7----------------7----------------|-----7-------------7----|
--7----------------7----------------|-----7-------------7----|
--5----------------5----------------|-----5-------------5----|
-------0--0--0--0-------0--0--0--0--|--0-------0--0--0-------|


       PM PM PM PM      PM PM PM PM    PM      PM PM PM       
  Q    S  S  S  S  Q    S  S  S  S     E  Q    E  E  E  Q     
------------------------------------|------------------------|
--8----------------8----------------|-----8-------------8----|
--5----------------5----------------|-----5-------------5----|
--8----------------8----------------|-----8-------------8----|
--5----------------5----------------|-----5-------------5----|
-------0--0--0--0-------0--0--0--0--|--0-------0--0--0-------|


       PM PM PM PM      PM PM PM PM    PM      PM PM PM       
  Q    S  S  S  S  Q    S  S  S  S     E  Q    E  E  E  Q     
--5----------------5----------------|-----5-------------5----|
--5----------------5----------------|-----5-------------5----|
--7----------------7----------------|-----7-------------7----|
--7----------------7----------------|-----7-------------7----|
--5----------------5----------------|-----5-------------5----|
-------0--0--0--0-------0--0--0--0--|--0-------0--0--0-------|


         PM PM PM PM        PM PM    PM        PM PM PM         
   Q     S  S  S  S   Q     E  E     E   Q     E  E  E   Q      
--(3)----------------(3)----------|-----(3)-------------(3)----|
---3------------------3-----------|------3---------------3-----|
---7------------------7-----------|------7---------------7-----|
---5------------------5-----------|------5---------------5-----|
---3-----3--3--3--3---3-----3--3--|--3---3-----3--3--3---3-----|
----------------------------------|----------------------------|


         PM PM PM PM        PM PM    PM        PM PM PM         
   Q     S  S  S  S   Q     E  E     E   Q     E  E  E   Q      
--(3)----------------(3)----------|-----(3)-------------(3)----|
---4------------------4-----------|------4---------------4-----|
---7------------------7-----------|------7---------------7-----|
---5------------------5-----------|------5---------------5-----|
---3-----3--3--3--3---3-----3--3--|--3---3-----3--3--3---3-----|
----------------------------------|----------------------------|


        PM PM PM PM       PM PM PM PM    PM PM       PM PM PM PM PM PM        
   Q    S  S  S  S   Q    S  S  S  S     S  S   Q    S  S  S  S  S  S   Q     
--------------------------------------|--------------------------------------|
---7-----------------7----------------|---------7-----------------------7----|
--10----------------10----------------|--------10----------------------10----|
---8-----------------8----------------|---------8-----------------------8----|
---6----6--6--6--6---6----6--6--6--6--|--6--6---6----6--6--6--6--6--6---6----|
--------------------------------------|--------------------------------------|


  PM PM PM PM PM PM       PM PM PM PM PM PM  
  S  S  S  S  S  S   Q    S  S  S  S  S  S   
--------------------------------------------|
---------------------7----------------------|
--------------------10----------------------|
---------------------8----------------------|
--6--6--6--6--6--6---6----6--6--6--6--6--6--|
--------------------------------------------|


        PM PM PM PM PM PM PM PM               PM PM PM PM      PM     
   Q    S  S  S  S  S  S  S  S   Q       Q    S  S  S  S  Q    E  E   
--------------------------------------|------------------------------|
---7-----------------------------7----|------------------------------|
--10----------------------------10----|------------------------------|
---8-----------------------------8----|------------------------------|
---6----6--6--6--6--6--6--6--6---6----|--3----------------3-------3--|
--------------------------------------|-------4--4--4--4-------4-----|


  PM        PM                       PM PM PM PM      PM      
  E  E   E  E  E   E   Q        Q    S  S  S  S  Q    E  E    
-----------------------------|-------------------------------|
-----------------------------|-------------------------------|
-----------------------------|-------------------------------|
-----------------------------|-------------------------------|
-----3s--5-----5s--9---------|--3----------------3-------3s--|
--4---------6---------10\----|-------4--4--4--4-------4------|


     PM                       PM PM PM PM        PM                
  E  E  E   E   Q        Q    S  S  S  S  E   E  E  E   E   Q      
----------------------|-------------------------------------------|
----------------------|-------------------------------------------|
----------------------|-------------------------------------------|
----------------------|-------------------------------------------|
--5-----5s--9---------|--3----------------3s--5-----5s--9---------|
-----6---------10\----|-------4--4--4--4---------6---------10\----|


                      PM                                                   
  Q    E  E  E  E  E  E     E  E  E  E  E  E  Q       Q    Q    Q.     E   
-------------------------|-------------------------|----------------------|
-------------------------|-------------------------|----------------------|
-------------------------|-------------------------|----------------------|
-------------------------|-------------------------|------------5------4--|
--3-------3--------3-----|--3-----------------5----|--3-------------------|
-------4-----4--6-----4--|-----4--6--0--1--4-------|-------4--------------|


              PM       PM       PM        PM       PM    PM  
  E  E  E  E  E  E  E  E     E  E  E   E  E  E  E  E  E  E   
--------------------------|---------------------------------|
--------------------------|---------------------------------|
--------------------------|---------------------------------|
--5--4-----3-----3--2-----|--2-----3s--7-----7--6-----6-----|
--------5-----5--------4--|-----4---------8--------7-----7--|
--------------------------|---------------------------------|


         PM PM PM PM      PM PM    PM PM       PM PM PM PM PM      
  Q.     S  S  S  S  Q    S  S     S  S  Q     E  E  E  E  E  E    
--------------------------------|---------------------------------|
--------------------------------|---------------------------------|
--------------------------------|---------------------------------|
--6------------------6----------|--------6\-----------------------|
--6------------------6----------|--------6\-----------------------|
--6------6--6--6--6--6----6--6--|--6--6--6\----1--1--1--1--1--1h--|


     PM PM PM PM PM PM PM    PM PM PM PM PM PM PM PM  
  E  E  E  E  E  E  E  E     E  E  E  E  E  E  E  E   
--------------------------|--------------------------|
--------------------------|--------------------------|
--------------------------|--------------------------|
--------------------------|--------------------------|
--------------------------|--------------------------|
--0--0--0--0--0--0--0--0--|--0--0--0--0--0--0--0--0--|


  S S S S S S S S S S S S S S S S  
----------------------------------|
----------------------------------|
----------------------------------|
--7-7-7-7-6-6-6-6-7-7-7-7-9-9-9-9-|
----------------------------------|
----------------------------------|


   S  S  S  S S S S S  S  S  S  S  S  S  S  S  
----------------------------------------------|
----------------------------------------------|
----------------------------------------------|
--10-10-10-10-9-9-9-9-10-10-10-10-12-12-12-12-|
----------------------------------------------|
----------------------------------------------|


   H          S  S  S  S  S  S  S  S  
-------------------------------------|
-------------------------------------|
-------------------------------------|
--12b--------13-13-13-13-13-13-13-13-|
-------------------------------------|
-------------------------------------|


                                                PM    PM         PM     PM  
   S  S  S  S  S  S  S  S  S  S  S  S  Q        E  E  E  E    E  E   E  E   
---------------------------------------------|-----------------------------|
---------------------------------------------|-----------------------------|
---------------------------------------------|-----------------------------|
--13-13-13-13-13-13-13-13-12-12-12-12-12~----|-----------------------------|
---------------------------------------------|-----8-----8s--11-----11-----|
---------------------------------------------|--6-----6----------9------9--|


      PM           PM             
   E  E   E    E   E   E   E  E   
---------------------------------|
---------------------------------|
---------------------------------|
---------------------------------|
--11-----11s--14------14---------|
------9-----------12------12-----|


   PM PM PM PM PM PM PM PMPM PM PM PM PM PM PM PM  
   S  S  S  S  S  S  S  S S  S  S  S  S  S  S  S   
--------------------------------------------------|
--------------------------------------------------|
--------------------------------------------------|
--------------------------------------------------|
--------------------------------------------------|
--12-12-12-12-12-12-12-12-9--9--9--9--9--9--9--9--|


  PM PM PM PM PM PM PM PM  PM PM PM PM PM PM PM PM 
  S  S  S  S  S  S  S  S   S  S  S  S  S  S  S  S  
--------------------------------------------------|
--------------------------------------------------|
--------------------------------------------------|
--------------------------------------------------|
--------------------------------------------------|
--9--9--9--9--9--9--9--9--13-13-13-13-13-13-13-13-|


   PM PM PM PM PM PM PM PMPM PM PM PM              
   S  S  S  S  S  S  S  S S  S  S  S   S  S  S  S  
--------------------------------------------------|
--------------------------------------------------|
--------------------------------------------------|
--------------------------------------------------|
--------------------------------------13-13-13-13-|
--12-12-12-12-12-12-12-12-9--9--9--9--------------|


   PM PM PM PM PM PM PM PMPM PM PM PM PM PM PM PM  
   S  S  S  S  S  S  S  S S  S  S  S  S  S  S  S   
--------------------------------------------------|
--------------------------------------------------|
--------------------------------------------------|
--------------------------------------------------|
--------------------------------------------------|
--12-12-12-12-12-12-12-12-9--9--9--9--9--9--9--9--|


  PM PM PM PM PM PM PM PM  PM PM PM PM PM PM PM PM 
  S  S  S  S  S  S  S  S   S  S  S  S  S  S  S  S  
--------------------------------------------------|
--------------------------------------------------|
--------------------------------------------------|
--------------------------------------------------|
--------------------------------------------------|
--9--9--9--9--9--9--9--9--13-13-13-13-13-13-13-13-|


   PM PM PM PM PM PM PM PMPM PM PM PM PM PM PM PM  
   S  S  S  S  S  S  S  S S  S  S  S  S  S  S  S   
--------------------------------------------------|
--------------------------------------------------|
--------------------------------------------------|
--------------------------------------------------|
--------------------------------------------------|
--12-12-12-12-12-12-12-12-9--9--9--9--9--9--9--9--|


                                         ^         
  S  S  E  E  E  E  E  E  E     H        H         
-----------------------------|-----------2--------|
-----------------------------|-----------3--------|
-----------------------------|-----------4--------|
--5h-6p-5-----5--------------|-----------4--------|
-----------8-----8--6--5--3--|--2--------2--------|
-----------------------------|--------------------|


  PM PM PM PM                                                        ^         
  S  S  S  S  Q    Q    Q       S S E  E  E  E  E  E  E     H        H         
--------------1----2----3----|---------------------------|-----------2--------|
--------------2----3----4----|---------------------------|-----------3--------|
--------------3----4----5----|---------------------------|-----------4--------|
--------------3----4----5----|--4-5-4--2--4--2-----------|-----------4--------|
--2--2--2--2--1----2----3----|------------------5--4--3--|--2--------2--------|
-----------------------------|---------------------------|--------------------|


  PM PM PM PM                                               
  S  S  S  S  Q    Q    Q       S  S  E  E  E  E  E  E  E   
--------------1----2----3----|-----------------------------|
--------------2----3----4----|-----------------------------|
--------------3----4----5----|-----------------------------|
--------------3----4----5----|--5h-6p-5-----5--------------|
--2--2--2--2--1----2----3----|-----------8-----8--6--5--4--|
-----------------------------|-----------------------------|


           ^           PM PM PM PM                 
  H        H           S  S  S  S  Q    Q    Q     
-----------3--------|--------------2----3----4----|
-----------4--------|--------------3----4----5----|
-----------5--------|--------------4----5----6----|
-----------5--------|--------------4----5----6----|
--3--------3--------|--3--3--3--3--2----3----4----|
--------------------|-----------------------------|


                                         ^         
  S  S  E  E  E  E  E  E  E     H        H         
-----------------------------|-----------2--------|
-----------------------------|-----------3--------|
-----------------------------|-----------4--------|
--4h-5p-4-----4--------------|-----------4--------|
-----------7-----7--5--4--3--|--2--------2--------|
-----------------------------|--------------------|


  PM PM PM PM                         PM PM PM PM              
  S  S  S  S  Q    Q    Q        Q    S  S  S  S   Q     Q     
--------------1----2----3----|--------------------------------|
--------------2----3----4----|--10----------------10-----9----|
--------------3----4----5----|---x-----------------x-----x----|
--------------3----4----5----|--11----------------11----10----|
--2--2--2--2--1----2----3----|---8-----------------8-----7----|
-----------------------------|---8----8--8--8--8---8-----7----|


        PM PM PM PM                      PM PM PM PM             
   Q    S  S  S  S   Q     Q        Q    S  S  S  S   Q    Q     
--------------------------------|-------------------------------|
--10----------------10----11----|--10----------------10----6----|
---x-----------------x-----x----|---x-----------------x----x----|
--11----------------11----12----|--11----------------11----7----|
---8-----------------8-----9----|---8-----------------8----4----|
---8----8--8--8--8---8-----9----|---8----8--8--8--8---8----4----|


  PM PM PM PM PM   PM   PM                                    
  S  S  S  S  Q    Q    Q       S S S S S S S S S S S S Q     
-----------------------------|-------------------------------|
-----------------------------|-------------------------------|
-----------------------------|-------------------------------|
-----------------------------|-------------------------------|
--------------3----2----3----|--4-4-4-4-4-4-4-4-4-4-4-4-3----|
--4--4--4--4--3----2----3----|-------------------------------|


        PM PM PM PM                      PM PM PM PM              
   Q    S  S  S  S   Q     Q        Q    S  S  S  S   Q     Q     
--------------------------------|--------------------------------|
--10----------------10-----9----|--10----------------10----11----|
---x-----------------x-----x----|---x-----------------x-----x----|
--11----------------11----10----|--11----------------11----12----|
---8-----------------8-----7----|---8-----------------8-----9----|
---8----8--8--8--8---8-----7----|---8----8--8--8--8---8-----9----|


        PM PM PM PM                                        
   Q    S  S  S  S   Q    Q       E  E  E  E  E  E  E  E   
-------------------------------|--------------------------|
--10----------------10----6----|--------------------------|
---x-----------------x----x----|--5--6--5-----------------|
--11----------------11----7----|-----------8--7--4--------|
---8-----------------8----4----|--------------------8--6--|
---8----8--8--8--8---8----4----|--------------------------|


  |--3--|  |--3--|  |----3----|                              
  E  E  E  E  E  E  Q    Q    Q       H          Q     Q     
-----------------------------------|------------------------|
-----------------------------------|--6~--------10-----9----|
--------------------5----6----8----|-------------x-----x----|
-----------4--6--8-----------------|------------11----10----|
--4--6--8--------------------------|-------------8-----7----|
-----------------------------------|-------------8-----7----|


        PM PM PM PM                      PM PM PM PM             
   Q    S  S  S  S   Q     Q        Q    S  S  S  S   Q    Q     
--------------------------------|-------------------------------|
--10----------------10----11----|--10----------------10----6----|
---x-----------------x-----x----|---x-----------------x----x----|
--11----------------11----12----|--11----------------11----7----|
---8-----------------8-----9----|---8-----------------8----4----|
---8----8--8--8--8---8-----9----|---8----8--8--8--8---8----4----|


  PM PM PM PM PM   PM   PM            PM PM PM PM              
  S  S  S  S  Q    Q    Q        Q    S  S  S  S   Q     Q     
-----------------------------|--------------------------------|
-----------------------------|--10----------------10-----9----|
-----------------------------|---x-----------------x-----x----|
-----------------------------|--11----------------11----10----|
--------------3----2----3----|---8-----------------8-----7----|
--4--4--4--4--3----2----3----|---8----8--8--8--8---8-----7----|


        PM PM PM PM                      PM PM PM PM                       
   Q    S  S  S  S   Q     Q        Q    S  S  S  S   Q    Q    Q    Q     
--------------------------------|-----------------------------------------|
--10----------------10----11----|--10----------------10-------------------|
---x-----------------x-----x----|---x-----------------x----5---------5----|
--11----------------11----12----|--11----------------11----7---------7----|
---8-----------------8-----9----|---8-----------------8----4---------4----|
---8----8--8--8--8---8-----9----|---8----8--8--8--8---8----4---------4----|


  Q    Q    Q     Q       Q.     H        E    
-----------------------|---------------------||
-----------------------|---------------------||
------------6----------|---------------------||
-----------------10----|---------------------||
-----------------------|--8------------------||
-----------------------|--8------------------||












Solo:

  E   E   E  E   E   E   E   E      W                    H.           Q      
--5h--6p--5---------------------|---------------------|---------------------|
-------------8p--6p--5h--6h--8--|--10~----------------|--L------------8~----|
--------------------------------|---------------------|---------------------|
--------------------------------|---------------------|---------------------|
--------------------------------|---------------------|---------------------|
--------------------------------|---------------------|---------------------|


  W                   W                   W                  
-------------------|-------------------|--------------------|
--L----------------|--L----------------|--8~----------------|
-------------------|-------------------|--------------------|
-------------------|-------------------|--------------------|
-------------------|-------------------|--------------------|
-------------------|-------------------|--------------------|


  H.           S   S  E     W                    W                 
-------------------------|--------------------|-------------------|
--L------------8h-10p-8--|--7~----------------|--L----------------|
-------------------------|--------------------|-------------------|
-------------------------|--------------------|-------------------|
-------------------------|--------------------|-------------------|
-------------------------|--------------------|-------------------|


  W                    H        E   E  Q       W                 
--------------------|-----------------------|-------------------|
--6~----------------|--L--------6h--8--5----|--L----------------|
--------------------|-----------------------|-------------------|
--------------------|-----------------------|-------------------|
--------------------|-----------------------|-------------------|
--------------------|-----------------------|-------------------|


                       |----3----|   |----3----|   |----3----|   |----3----|    
  W                    E    E    E   E    E    E   E    E    E   E    E    E    
-------------------|--------------------------------------------12h--13h--15S--|
--L----------------|------------------------------11h--13h--15-----------------|
-------------------|----------------10h--12h--14-------------------------------|
-------------------|--10h--12h--14---------------------------------------------|
-------------------|-----------------------------------------------------------|
-------------------|-----------------------------------------------------------|


   |-----------3-----------|                                                   
   H            H          H            W                    W                 
--17br--------(17)--------15--------|--14~----------------|--L----------------|
------------------------------------|---------------------|-------------------|
------------------------------------|---------------------|-------------------|
------------------------------------|---------------------|-------------------|
------------------------------------|---------------------|-------------------|
------------------------------------|---------------------|-------------------|


                           put some whammy bar vibrato on these notes        
                 T                                                    T      
  Q.     Q.      Q         H.                                         Q      
-----------------------|----------------------------------------------------|
----------------20h----|--16~----------------------------------------19h----|
-----------------------|----------------------------------------------------|
-----------------------|----------------------------------------------------|
-----------------------|----------------------------------------------------|
-----------------------|----------------------------------------------------|


                  T                            
   H.             Q         W                  
------------------------|---------------------|
--15~------------16h----|--12~----------------|
------------------------|---------------------|
------------------------|---------------------|
------------------------|---------------------|
------------------------|---------------------|


                                                     |-----3-----|     
  E   E   E   E   E   E   E   E      E   E   E   E   Q     Q     Q     
---------------------------------|------------------14----16----18----|
---------------------------------|------13--15--16--------------------|
-------------------------11--13--|--15--------------------------------|
-------------10--12--13----------|------------------------------------|
--9--11--13----------------------|------------------------------------|
---------------------------------|------------------------------------|


   Q.       Q.      Q        W                    W                 
--16b------14------------|---------------------|-------------------|
-------------------16----|--16~----------------|--L----------------|
-------------------------|--19~----------------|--L----------------|
-------------------------|---------------------|-------------------|
-------------------------|---------------------|-------------------|
-------------------------|---------------------|-------------------|










comments
print report bad tab
I want to post or [tab]
guest
You may want to rate the tab now too:
select rating
Please do not post tabs as comments. Select "correction" instead!