Oops, an error
Loading. Please wait.

Ghost Of A Stranger Tab

ver1
ver1

Whole song

Interactive

More versions @911Tabs.com
6,736 views 27 this week
4 commentsread comments
1 2 3 4 5
excellent!
x 5
Autoscroll
+/-
esc
set tempo
stop
Contributor
Difficulty
advanced
Hey! There's an official Ultimate Guitar app which is ideal
for learning songs when you're away from computer. Get the app
WARNING: You are trying to view
                                    content from Ultimate-Guitar.com
                                    in an unauthorized application,
                                    which is prohibited.

                                    Please use an official Ultimate
                                    Guitar Tabs application for iPhone,
                                    iPad or Android to access legitimate
                                    chords, guitar, bass, and drum tabs
                                    from Ultimate-Guitar.com database.

                                    Type "ultimate guitar tabs" in Apple
                                    App Store's or Android Market's
                                    search to find the application.
#----------------------------------PLEASE NOTE---------------------------------#
#This file is the author's own work and represents their interpretation of the #
#song. You may only use this file for private study, scholarship, or research. #
#------------------------------------------------------------------------------#

GHOST OF A STRANGER
As recorded by The Faceless
(From the 2007 Album AKELDAMA)

Transcribed by Eric De La Torre
        

Words and Music by The Faceless
Arranged by The Faceless

Gtr I (C G C F A D) - 'Guitar Left'
Gtr II (C G C F A D) - 'Guitar Right'
Gtr III (C G C F A D) - 'Synth I'
Gtr IV (C G C F A D) - 'Synth II'
Gtr V (C G C F A D) - 'Clean I'
Gtr VI (C G C F A D) - 'Clean II'

   Riff A
    Q=230
   4/4                                     5/4
    Gtr I
    PM----|       PM----------|       PM------|       PM|
    E E E E S S E E E   E E E E S S E E E   E E E E E E  E  E E  E
||--------------------|-------------------|-------------------------||
||o-------------------|-------------------|------------------------o||
||--------------------|-------------------|-------------------------||
||----------3-6-3-----|---------3-6-3-----|-------6-9---------9-12--||
||o-------5-------5---|-------5-------5---|-----8----------11------o||
||--0-3-6-----------6-|-0-3-6-----------6-|-6-9-------9-12----------||
|
|   Gtr II
|   PM----|       PM----------|       PM------|       PM|
|   E E E E S S E E E   E E E E S S E E E   E E E E E E  E  E E  E
||--------------------|-------------------|-------------------------||
||o-------------------|-------------------|------------------------o||
||--------------------|-------------------|-------------------------||
||----------3-6-3-----|---------3-6-3-----|-------3-6---------6--9--||
||o-------5-------5---|-------5-------5---|-----5-----------8------o||
||--0-3-6-----------6-|-0-3-6-----------6-|-3-6-------6--9----------||


 Riff B
 4/4
  TP    TP      TP    TP        PM----|       PM---
  Q  Q  Q  Q    Q  Q  Q  Q      E E E E S S E E E
|-------------|-------------||--------------------|
|-------------|-------------||o-------------------|
|-------------|-------------||--------------------|
|-------------|-------2--3--||----------3-6-3-----|
|-------5--4--|-------------||o-------5-------5---|
|-3--6--------|-2--5--------||--0-3-6-----------6-|
|
| TP    TP      TP    TP        PM----|       PM---
| Q  Q  Q  Q    Q  Q  Q  Q      E E E E S S E E E
|-------------|-------------||--------------------|
|-------------|-------------||o-------------------|
|-------------|-------------||--------------------|
|-------------|-------5--6--||----------3-6-3-----|
|-------8--7--|-------------||o-------5-------5---|
|-6--9--------|-5--8--------||--0-3-6-----------6-|


                     5/4
 -------|       PM------|       PM|
  E E E E S S E E E   E E E E E E  E  E E  E
|-------------------|-------------------------||
|-------------------|------------------------o||
|-------------------|-------------------------||
|---------3-6-3-----|-------6-9---------9-12--||
|-------5-------5---|-----8----------11------o||
|-0-3-6-----------6-|-6-9-------9-12----------||
|
|-------|       PM------|       PM|
| E E E E S S E E E   E E E E E E  E  E E  E
|-------------------|-------------------------||
|-------------------|------------------------o||
|-------------------|-------------------------||
|---------3-6-3-----|-------3-6---------6--9--||
|-------5-------5---|-----5-----------8------o||
|-0-3-6-----------6-|-3-6-------6--9----------||


 4/4
   T.  T.  T.  T. H.      S    T.  T.  T.  T. H.      S
|---------------------------|---------------------------|
|---------------------------|---------------------------|
|-10--10--10--10------------|-11--11--11--11------------|
|---------------------------|---------------------------|
|---------------------------|---------------------------|
|---------------------------|---------------------------|
|
|  T.  T.  T.  T. H.      S    T.  T.  T.  T. H.      S
|---------------------------|---------------------------|
|---------------------------|---------------------------|
|---------------------------|---------------------------|
|-12--12--12--12------------|-13--13--13--13------------|
|---------------------------|---------------------------|
|---------------------------|---------------------------|


    TP    TP      TP    TP
    Q  Q  Q  Q    Q  Q  Q  Q
||--------------|----------------||
||o-------------|---------------o||
||--------------|----------------||
||--------------|-------2--3-----||
||o-------5--4--|---------------o||
||--3--6--------|-2--5-----------||
|
|   TP    TP      TP    TP
|   Q  Q  Q  Q    Q  Q  Q  Q
||--------------|----------------||
||o-------------|---------------o||
||--------------|----------------||
||--------------|-------5--6-----||
||o-------8--7--|---------------o||
||--6--9--------|-5--8-----------||


 Riff C
                                                     PM|
  E E E E  E  E E E   E E E E E E E E    E E E E E E E E
|-------------------|-----------------|------------------|
|-------------------|-----------------|------------------|
|-----5-6--7--------|---3-----2S1-----|------------------|
|-------------8-----|-4-----3-----2---|------4-----------|
|-5-6-----------6-3-|-----2---------1-|-/5-4---6-3-5-----|
|-------------------|-----------------|--------------6-3-|
|
|                                                    PM|
| E E E E  E  E E E   E E E E E E E E    E E E E E E E E
|-------------------|-----------------|------------------|
|-------------------|-----------------|------------------|
|-----8-9-10--------|---6-----5S4-----|------------------|
|------------11-----|-7-----6-----5---|------7-----------|
|-8-9-----------9-6-|-----5---------4-|-/8-7---9-6-8-----|
|-------------------|-----------------|--------------9-6-|


    PM  PM|     PM      PM      PM--|    PM-----|
                                |3|      |3-|
  E E E E E  E  E  E    E  Q  E S S E E. S. S   E H.      E
|--------------------|------------------------|----------------|
|-5---5------8-----8-|-----8------------------|----------------|
|--------------------|------------------------|----------------|
|---5---5-5-----8----|--8---------------------|----------------|
|--------------------|----------0-0-0----0--0-|-0--------------|
|--------------------|----------1-1-1----1--1-|-1--------------|
|
|   PM  PM|     PM      PM      PM--|    PM-----|
|                               |3|      |3-|
| E E E E E  E  E  E    E  Q  E S S E E. S. S   E H.      E
|--------------------|------------------------|----------------|
|-8---8-----11----11-|----11------------------|----------------|
|--------------------|------------------------|----------------|
|---8---8-8----11----|-11---------------------|----------------|
|--------------------|----------0-0-0----0--0-|-0--------------|
|--------------------|----------1-1-1----1--1-|-1--------------|


   Riff D
    TP    TP      TP    TP
    Q  Q  Q  Q    Q  Q  Q  Q      E E E E  E  E E E   E E E E E E E E
||--------------|--------------||-------------------|------------------|
||o-------------|-------------o||-------------------|------------------|
||--------------|--------------||-----5-6--7--------|---3-----2S1------|
||--------------|-------2--3---||-------------8-----|-4-----3-----2----|
||o-------5--4--|-------------o||-5-6-----------6-3-|-----2---------1--|
||--3--6--------|-2--5---------||-------------------|------------------|
|
|   TP    TP      TP    TP
|   Q  Q  Q  Q    Q  Q  Q  Q      E E E E  E  E E E   E E E E E E E E
||--------------|--------------||-------------------|------------------|
||o-------------|-------------o||-------------------|------------------|
||--------------|--------------||-----8-9-10--------|---6-----5S4------|
||--------------|-------5--6---||------------11-----|-7-----6-----5----|
||o-------8--7--|-------------o||-8-9-----------9-6-|-----5---------4--|
||--6--9--------|-5--8---------||-------------------|------------------|


               PM|     PM  PM|     PM      PM      PM--|    PM-----|
                                                   |3|      |3-|
   E E E E E E E E   E E E E E  E  E  E    E  Q  E S S E E. S. S   E H.      E
|------------------|--------------------|------------------------|-------------|
|------------------|-5---5------8-----8-|-----8------------------|-------------|
|------------------|--------------------|------------------------|-------------|
|------4-----------|---5---5-5-----8----|--8---------------------|-------------|
|-/5-4---6-3-5-----|--------------------|----------0-0-0----0--0-|-0-----------|
|--------------6-3-|--------------------|----------1-1-1----1--1-|-1-----------|
|
|              PM|     PM  PM|     PM      PM      PM--|    PM-----|
|                                                  |3|      |3-|
|  E E E E E E E E   E E E E E  E  E  E    E  Q  E S S E E. S. S   E H.      E
|------------------|--------------------|------------------------|-------------|
|------------------|-8---8-----11----11-|----11------------------|-------------|
|------------------|--------------------|------------------------|-------------|
|------7-----------|---8---8-8----11----|-11---------------------|-------------|
|-/8-7---9-6-8-----|--------------------|----------0-0-0----0--0-|-0-----------|
|--------------9-6-|--------------------|----------1-1-1----1--1-|-1-----------|


 Riff E
  PM                 PM                  PM        PM
  Q  H.        H     Q   Q    W          Q  H      Q
|------------|--------------|----------|--------------|
|------------|--------------|----------|--------------|
|------------|--------------|----------|--------------|
|------------|--------------|----------|--------------|
|-0----------|-------0------|----------|-0---------0--|
|-1----------|-------1------|----------|-1---------1--|
|
| PM
| Q  H.        H.        Q    W          H      Q  Q
|------------|--------------|----------|--------------|
|------------|----------11--|----------|-------11-----|
|------------|----------14--|----------|-------14-----|
|------------|--------------|----------|--------------|
|-0----------|--------------|----------|--------------|
|-1----------|--------------|----------|--------------|


 Riff F
  TP    TP      TP    TP      TP    TP      TP    PM-|
  Q  Q  Q  Q    Q  Q  Q  Q    Q  Q  Q  Q    Q  Q  Q  Q
|-------------|-------------|-------------|-------------|
|-------------|-------------|-------------|-------------|
|-------------|-------------|-------------|-------------|
|-------------|-------2--3--|-------------|-------------|
|-------5--4--|-------------|-------5--4--|-------0--0--|
|-3--6--------|-2--5--------|-3--6--------|-2--5--1--1--|
|
| TP    TP      TP    TP      TP    TP      TP    PM-|
| Q  Q  Q  Q    Q  Q  Q  Q    Q  Q  Q  Q    Q  Q  Q  Q
|-------------|-------------|-------------|-------------|
|-------------|-------------|-------------|-------------|
|-------------|-------------|-------------|-------------|
|-------------|-------5--6--|-------------|-------------|
|-------8--7--|-------------|-------8--7--|-------0--0--|
|-6--9--------|-5--8--------|-6--9--------|-5--8--1--1--|


  TP    TP      TP    TP      TP    TP      TP    PM--|    PM-----|
                                                  |3|      |3-|
  Q  Q  Q  Q    Q  Q  Q  Q    Q  Q  Q  Q    Q  Q  S S E E. S. S   E H.      E
|-------------|-------------|-------------|---------------------|--------------|
|-------------|-------------|-------------|---------------------|--------------|
|-------------|-------------|-------------|---------------------|--------------|
|-------------|-------2--3--|-------------|---------------------|--------------|
|-------5--4--|-------------|-------5--4--|-------0-0-0----0--0-|-0------------|
|-3--6--------|-2--5--------|-3--6--------|-2--5--1-1-1----1--1-|-1------------|
|
| TP    TP      TP    TP      TP    TP      TP    PM--|    PM-----|
|                                                 |3|      |3-|
| Q  Q  Q  Q    Q  Q  Q  Q    Q  Q  Q  Q    Q  Q  S S E E. S. S   E H.      E
|-------------|-------------|-------------|---------------------|--------------|
|-------------|-------------|-------------|---------------------|--------------|
|-------------|-------------|-------------|---------------------|--------------|
|-------------|-------5--6--|-------------|---------------------|--------------|
|-------8--7--|-------------|-------8--7--|-------0-0-0----0--0-|-0------------|
|-6--9--------|-5--8--------|-6--9--------|-5--8--1-1-1----1--1-|-1------------|


 Riff G
  Q=115
        PM--------|  ~~~         PM--------|  ~~~
        |----3----|              |----3----|
  Q  Q  S S S S S S  Q     Q  Q  S S S S S S  Q
|------------------------|------------------------|
|------------------------|------------------------|
|------------------------|------------------------|
|------------------------|-------2-2-2-2-2-2-[3]--|
|-------5-5-5-5-5-5-[4]--|------------------------|
|-3--6-------------------|-2--5-------------------|
|
|       PM--------|  ~~~         PM--------|  ~~~
|       |----3----|              |----3----|
| Q  Q  S S S S S S  Q     Q  Q  S S S S S S  Q
|------------------------|------------------------|
|------------------------|------------------------|
|------------------------|------------------------|
|------------------------|-------5-5-5-5-5-5-[3]--|
|-------8-8-8-8-8-8-[4]--|------------------------|
|-6--9-------------------|-5--8-------------------|


        PM--------|  ~~~         PM--------|  ~~~
        |----3----|              |----3----|
  Q  Q  S S S S S S  Q     Q  Q  S S S S S S  Q
|------------------------|--------------------------|
|------------------------|--------------------------|
|------------------------|--------------------------|
|------------------------|-------2-2-2-2-2-2-[3]----|
|-------5-5-5-5-5-5-[4]--|--------------------------|
|-3--6-------------------|-2--5---------------------|
|
|       PM--------|  ~~~         PM--------|  ~~~
|       |----3----|              |----3----|
| Q  Q  S S S S S S  Q     Q  Q  S S S S S S  Q
|------------------------|--------------------------|
|------------------------|--------------------------|
|------------------------|--------------------------|
|------------------------|-------5-5-5-5-5-5-[3]----|
|-------8-8-8-8-8-8-[4]--|--------------------------|
|-6--9-------------------|-5--8---------------------|


        PM--------|  ~~~         PM--------|  ~~~
        |----3----|              |----3----|
  Q  Q  S S S S S S  Q     Q  Q  S S S S S S  Q
|------------------------|------------------------|
|------------------------|------------------------|
|------------------------|------------------------|
|------------------------|-------2-2-2-2-2-2-[3]--|
|-------5-5-5-5-5-5-[4]--|------------------------|
|-3--6-------------------|-2--5-------------------|
|
|       PM--------|  ~~~         PM--------|  ~~~
|       |----3----|              |----3----|
| Q  Q  S S S S S S  Q     Q  Q  S S S S S S  Q
|------------------------|------------------------|
|------------------------|------------------------|
|------------------------|------------------------|
|------------------------|-------5-5-5-5-5-5-[3]--|
|-------8-8-8-8-8-8-[4]--|------------------------|
|-6--9-------------------|-5--8-------------------|


        PM--------|  ~~~
        |----3----|
  Q  Q  S S S S S S  Q     H     H
|------------------------|------------|
|------------------------|------------|
|------------------------|------------|
|------------------------|-1----/4----|
|-------5-5-5-5-5-5-[4]--|-1----/5----|
|-3--6-------------------|-1----/4----|
|
|       PM--------|  ~~~
|       |----3----|
| Q  Q  S S S S S S  Q     H     H
|------------------------|------------|
|------------------------|------------|
|------------------------|------------|
|------------------------|-1----/4----|
|-------8-8-8-8-8-8-[4]--|-1----/5----|
|-6--9-------------------|-1----/4----|


 Riff H
  Q=105
       PM  PM  PM  PM  PM                  PM  PM|   PM|    PM|   PM   PM
  E  S S S S S S S S S S T  T S S S   +S   S S S S S S S  S S S S S S  S  S
|-----------------------------------|---------------------------------------|
|-----------------------------------|---------------------------------------|
|-----------------------------------|---------------------------------------|
|-----------------------------------|--------8-----7-----10-----7---8-------|
|----3---1---3---5---3---1--3-1-----|------5-----5-----5------5-------------|
|-1----1---1---1---1---1--------4-5-|-(5)------5-----5------5-----5----5--4-|
|
|                                          PM  PM|   PM|    PM|   PM   PM
| H.                     E.       S   +S   S S S S S S S  S S S S S S  S  S
|-----------------------------------|---------------------------------------|
|-----------------------------------|---------------------------------------|
|-----------------------------------|--------7-----5------8-----5---7-------|
|-----------------------------------|---------------------------------------|
|-----------------------------------|------5-----5-----5------5-------------|
|---------------------------------5-|-(5)------5-----5------5-----5----5--4-|
|
| Gtr III
| H.                     E.       S   +H..                            +S  S
|-----------------------------------|---------------------------------------|
|-----------------------------------|---------------------------------------|
|---------------------------------7-|-(7)-----------------------------(7)---|
|---------------------------------8-|-(8)-----------------------------(8)-7-|
|-----------------------------------|-------------------------------------9-|
|---------------------------------5-|-(5)-----------------------------(5)-4-|


                                                  PM  PM|    PM    PM   PM|    PM
  +S  S  S S  S S  S S T  T S  S S S S  S S   +S  S S S S S  S   E S  S S S  S S S
|-------------------------------------------|-----------------------------------------|
|-------------------------------------------|-----------------------------------------|
|---------------5------5--8-5---------------|-----------------------------------------|
|----------4--7----7-4---------7-4----------|-------8-----7----------12-----10--------|
|-----3--6-------------------------6-3--0---|-----5-----5----------8------8-----------|
|-(4)-------------------------------------5-|-(5)-----5------5---8------8------8-4----|
|
|                                                 PM  PM|    PM    PM   PM|    PM
| +S  S  S S  S S  S S T  T S  S S S S  S S   +S  S S S S S  S   E S  S S S  S S S
|-------------------------------------------|-----------------------------------------|
|-------------------------------------------|-----------------------------------------|
|---------------8------8-11-8---------------|-------7-----5----------10------8--------|
|----------7-10---10-7--------10-7----------|-----------------------------------------|
|-----6--9-------------------------9-6------|-----5-----5----------8------8-----------|
|-(4)----------------------------------10-5-|-(5)-----5------5---8------8------8-4----|
|
| +S  H.                             E    S   +Q.           +S   H               S
|-------------------------------------------|-----------------------------------------|
|-------------------------------------------|-----------------------------------------|
|-----------------------------------------7-|-(7)-----------(7)-10--------------------|
|-(7)-------------------------------------8-|-(8)-----------(8)-12---------------7----|
|-(9)---------------------------------------|------------------------------------9----|
|-(4)-------------------------------------5-|-(5)-----------(5)--8---------------4----|


  +S  S  S S  S S  S S T  T S  S S S S   S S    S S S  S S  S S S H
|--------------------------------------------|-------------------------|
|--------------------------------------------|-------------------------|
|---------------5------5--8-5----------------|-11-8-7------------------|
|----------4--7----7-4---------7-4-----------|--------10-7-------------|
|-----3--6-------------------------6-3---0---|-------------10-9-6------|
|-(4)----------------------------------------|-------------------------|
|
| +S  S  S S  S S  S S T  T S  S S S S   S S    W
|--------------------------------------------|-------------------------|
|--------------------------------------------|-------------------------|
|---------------8------8-11-8----------------|-------------------------|
|----------7-10---10-7--------10-7-----------|-------------------------|
|-----6--9-------------------------9-6-------|-------------------------|
|-(4)-----------------------------------10---|-------------------------|
|
| +S  H.                             E.         W
|--------------------------------------------|-------------------------|
|--------------------------------------------|-------------------------|
|--------------------------------------------|-------------------------|
|-(7)----------------------------------------|-------------------------|
|-(9)----------------------------------------|-------------------------|
|-(4)----------------------------------------|-------------------------|


 Riff I
                                                         PM--------|
   H.       Q     H     Q   Q     H.       Q     E E  Q  S S E S S E
|--------------|---------------|--------------|----------------------|
|--------------|---------------|--------------|----------------------|
|--------------|---------------|--------------|----------------------|
|--3-------10--|--9-----1---3--|--3-------10--|--9-----------5-----7-|
|--0--------7--|--6-----1---3--|--0--------7--|--6-------1-1-1-3-3-3-|
|--0--------7--|--6-----1---3--|--0--------7--|--6-------1-1-1-3-3-3-|
|
|                                                        PM--------|
|  H.       Q     H     Q   Q     H.       Q     E E  Q  S S E S S E
|--------------|---------------|--------------|----------------------|
|--------------|---------------|--------------|----------------------|
|--------------|---------------|--------------|----------------------|
|--3-------10--|--9-----1---3--|--3-------10--|--9-----------5-----7-|
|--0--------7--|--6-----1---3--|--0--------7--|--6-------1-1-1-3-3-3-|
|--0--------7--|--6-----1---3--|--0--------7--|--6-------1-1-1-3-3-3-|
|
|  H.       Q     H     Q   Q     H.       Q     E Q.    H
|--------------|---------------|--------------|----------------------|
|--------------|---------------|--------------|----------------------|
|--------------|---------------|--------------|----------------------|
|-15-------22--|-21----13--15--|-15-------22--|-21-------------------|
|-12-------19--|-18----13--15--|-12-------19--|-18-------------------|
|-12-------19--|-18----13--15--|-12-------19--|-18-------------------|


   Riff J
     PM|         PM|         PM|         PM|
     S  S  S  S  S  S  S  S  S  S  S  S  S  S  S  S
||--------------------------------------------------|
||o-------------------------------------------------|
||--------------------------------------------------|
||---------3-----------3-----------3----------10----|
||o-----0-----0-----0-----0-----0-----0-----7-----7-|
||---0-----------0-----------0-----------7----------|
|
|    PM|         PM|         PM|         PM|
|    S  S  S  S  S  S  S  S  S  S  S  S  S  S  S  S
||--------------------------------------------------|
||o-------------------------------------------------|
||--------------------------------------------------|
||---------3-----------3-----------3----------10----|
||o-----0-----0-----0-----0-----0-----0-----7-----7-|
||---0-----------0-----------0-----------7----------|
|
|   Gtr IV
|    s  s  s  s  s  s  s  s  s  s  s  s  s  s  s  s
||--------------------------------------------------|
||o-------------------------------------------17----|
||--------14----------14----------14----14-17----17-|
||--12-15----15-12-15----15-12-15----15-------------|
||o-------------------------------------------------|
||--------------------------------------------------|


   PM|         PM|         PM|         PM|
   S  S  S  S  S  S  S  S  S  S  S  S  S  S  S  S   4x
|---------------------------------------------------||
|--------------------------------------------------o||
|---------------------------------------------------||
|--------9-----------9-----------5-----------7------||
|-----6-----6-----6-----6-----1-----1-----3-----3--o||
|--6-----------6-----------1-----------3------------||
|
|  PM|         PM|         PM|         PM|
|  S  S  S  S  S  S  S  S  S  S  S  S  S  S  S  S   4x
|---------------------------------------------------||
|--------------------------------------------------o||
|---------------------------------------------------||
|--------9-----------9-----------5-----------7------||
|-----6-----6-----6-----6-----1-----1-----3-----3--o||
|--6-----------6-----------1-----------3------------||
|
|  s  s  s  s  s  s  s  s  s  s  s  s  s  s  s  s   4x
|---------------------------------------------------||
|-------16----------16-----------------------------o||
|-13-16----16-13-16----16-------15----------17------||
|-------------------------13-17----17-15-19----19---||
|--------------------------------------------------o||
|---------------------------------------------------||


   Riff K
     PM|      PM|       PM|      PM|
     S S  S S S S  S S  S S  S S S S  S S
||----------------------------------------|
||o---------------------------------------|
||----------------------------------------|
||-------11-------11--------10-------10---|
||o----8----8---8----8----7----7---7----7-|
||---8--------8---------7--------7--------|
|
|    PM|      PM|       PM|      PM|
|    S S  S S S S  S S  S S  S S S S  S S
||----------------------------------------|
||o---------------------------------------|
||-------10-------10---------9--------9---|
||----------------------------------------|
||o----8----8---8----8----7----7---7----7-|
||---8--------8---------7--------7--------|
|
|   Gtr III
|    H                  H
||----------------------------------------|
||o---------------------------------------|
||--10------------------9-----------------|
||--11-----------------10-----------------|
||o---------------------------------------|
||---8------------------7-----------------|


   PM|      PM|       PM|      PM|
   S S  S S S S  S S  S S  S S S S  S S
|-----------------------------------------||
|----------------------------------------o||
|-----------------------------------------||
|------11-------11--------12-------12-----||
|----8----8---8----8----9----9---9----9--o||
|--8--------8---------9--------9----------||
|
|  PM|      PM|       PM|      PM|
|  S S  S S S S  S S  S S  S S S S  S S
|-----------------------------------------||
|----------------------------------------o||
|------10-------10--------11-------11-----||
|-----------------------------------------||
|----8----8---8----8----9----9---9----9--o||
|--8--------8---------9--------9----------||
|
|  H                  H
|-----------------------------------------||
|----------------------------------------o||
|-10-----------------11-------------------||
|-11-----------------12-------------------||
|----------------------------------------o||
|--8------------------9-------------------||


   Riff L
     PM|         PM|         PM|         PM|
     S  S  S  S  S  S  S  S  S  S  S  S  S  S  S  S
||--------------------------------------------------|
||o-------------------------------------------------|
||--------------------------------------------------|
||---------3-----------3-----------3----------10----|
||o-----0-----0-----0-----0-----0-----0-----7-----7-|
||---0-----------0-----------0-----------7----------|
|
|    PM|         PM|         PM|         PM|
|    S  S  S  S  S  S  S  S  S  S  S  S  S  S  S  S
||--------------------------------------------------|
||o-------------------------------------------------|
||--------------------------------------------------|
||---------3-----------3-----------3----------10----|
||o-----0-----0-----0-----0-----0-----0-----7-----7-|
||---0-----------0-----------0-----------7----------|
|
|   Gtr IV
|    s  s  s  s  s  s  s  s  s  s  s  s  s  s  s  s
||--------------------------------------------------|
||o-------------------------------------------17----|
||--------14----------14----------14----14-17----17-|
||--12-15----15-12-15----15-12-15----15-------------|
||o-------------------------------------------------|
||--------------------------------------------------|


   PM|         PM|         PM|         PM|
   S  S  S  S  S  S  S  S  S  S  S  S  S  S  S  S
|---------------------------------------------------||
|--------------------------------------------------o||
|---------------------------------------------------||
|--------9-----------9-----------5-----------7------||
|-----6-----6-----6-----6-----1-----1-----3-----3--o||
|--6-----------6-----------1-----------3------------||
|
|  PM|         PM|         PM|         PM|
|  S  S  S  S  S  S  S  S  S  S  S  S  S  S  S  S
|---------------------------------------------------||
|--------------------------------------------------o||
|---------------------------------------------------||
|--------9-----------9-----------5-----------7------||
|-----6-----6-----6-----6-----1-----1-----3-----3--o||
|--6-----------6-----------1-----------3------------||
|
|  s  s  s  s  s  s  s  s  s  s  s  s  s  s  s  s
|---------------------------------------------------||
|-------16----------16-----------------------------o||
|-13-16----16-13-16----16-------15----------17------||
|-------------------------13-17----17-15-19----19---||
|--------------------------------------------------o||
|---------------------------------------------------||


 Break
  Q=200
  W          +W           W          +W
|----------|------------|----------|--------|
|----------|------------|----------|--------|
|----------|------------|----------|--------|
|-0--------|-(0)--------|-0--------|-(0)----|
|-0--------|-(0)--------|-0--------|-(0)----|
|-0--------|-(0)--------|-0--------|-(0)----|
|
| W          +W           W          +W
|----------|------------|----------|--------|
|----------|------------|----------|--------|
|----------|------------|----------|--------|
|-0--------|-(0)--------|-0--------|-(0)----|
|-0--------|-(0)--------|-0--------|-(0)----|
|-0--------|-(0)--------|-0--------|-(0)----|


  W          +W           W          +H      H
|----------|------------|----------|---------------|
|----------|------------|----------|---------------|
|----------|------------|----------|---------------|
|-0--------|-(0)--------|-0--------|-(0)----12\----|
|-0--------|-(0)--------|-0--------|-(0)----12\----|
|-0--------|-(0)--------|-0--------|-(0)----12\----|
|
| W          +W           W          +H      H
|----------|------------|----------|---------------|
|----------|------------|----------|---------------|
|----------|------------|----------|---------------|
|-0--------|-(0)--------|-0--------|-(0)----12\----|
|-0--------|-(0)--------|-0--------|-(0)----12\----|
|-0--------|-(0)--------|-0--------|-(0)----12\----|


 Riff M
  PM----|     PM------|                PM----|     PM------|
  E E E E E E E E   E E E E E E E  E   E E E E E E E E   E E E E E E E  E
|-----------------|------------------|-----------------|------------------|
|-----------------|------------------|-----------------|------------------|
|-----------------|-------------4--7-|-----------------|-------------4--7-|
|-----------------|---------3-6------|-----------------|---------3-6------|
|---------2-5-----|-----2-5----------|---------2-5-----|-----2-5----------|
|-0-6-3-0-----0-6-|-3-0--------------|-0-6-3-0-----0-6-|-3-0--------------|
|
| PM----|     PM------|                PM----|     PM------|
| E E E E E E E E   E E E E E E E  E   E E E E E E E E   E E E E E E E  E
|-----------------|------------------|-----------------|------------------|
|-----------------|------------------|-----------------|------------------|
|-----------------|-------------7-10-|-----------------|-------------7-10-|
|-----------------|---------6-9------|-----------------|---------6-9------|
|---------5-8-----|-----5-8----------|---------5-8-----|-----5-8----------|
|-0-9-6-0-----0-9-|-6-0--------------|-0-9-6-0-----0-9-|-6-0--------------|


             Q=140
                                                                              PM---
  E  E  E  E S   S  S  S  S   E  S    S  S  S   S  S  S  S  S   E  S  S  S  S S S
|-------7-10-----------------------|----------------------------------------------|
|-6--9-------------------11-/14-11-|-----------------------17-/20-17--------------|
|----------------------9-----------|-12--9--------------15-----------18-15--------|
|------------5--/8-11--------------|-------11-/11-14-17--------------------17-----|
|----------------------------------|------------------------------------------0-0-|
|----------------------------------|------------------------------------------0-0-|
|
| E  E  E  E S   S  S  S  S   E  S    S  S  S   S  S  S  S  S   E  S  S  S  S E
|------10-13-----------------------|----------------------------------------------|
|-9-12-------------------14-/17-14-|-----------------------20--23-20--------------|
|---------------------12-----------|-15-12--------------18-----------21-18--------|
|------------8-/11-14--------------|-------14-/14-17-20--------------------20-----|
|----------------------------------|----------------------------------------------|
|----------------------------------|----------------------------------------------|


 ---------------------------------|   PM----|     PM----|
  E S S Q  S S S S S S S S   E  S S E S S S S S S S S S S
|--------------------------|---------------------------------|
|--------------------------|---------------------------------|
|--------------------------|---------------------------------|
|--------------------------|---------------------------------|
|---0-0----0-0---0-0---0-0-|----0-0-----------2-5------------|
|---0-0----0-0---0-0---0-0-|----0-0---0-6-3-0-----0-6-3-0----|
|
|                                     PM----|     PM----|
| W                          Q.       S S S S S S S S S S
|--------------------------|---------------------------------|
|--------------------------|---------------------------------|
|--------------------------|---------------------------------|
|--------------------------|---------------------------------|
|--------------------------|------------------5-8------------|
|--------------------------|----------0-9-6-0-----0-9-6-0----|


               PM---------------------------------|   PM---
  S S S S S  S S S E S S Q    S S S S S S S S E S S E S S
|---------------------------|-----------------------------|
|---------------------------|-----------------------------|
|---------4--7--------------|-----------------------------|
|-----3-6-------------------|-----------------------------|
|-2-5----------0-0---0-0----|-0-0---0-0---0-0---0-0-------|
|--------------0-0---0-0----|-0-0---0-0---0-0---0-0---0-6-|
|
|              PM---------------------------------|   PM---
| S S S S S  S S S E S S Q    S S S S S S S S E S S E S S
|---------------------------|-----------------------------|
|---------------------------|-----------------------------|
|---------7-10--------------|-----------------------------|
|-----6-9-------------------|-----------------------------|
|-5-8----------0-0---0-0----|-0-0---0-0---0-0---0-0-------|
|--------------0-0---0-0----|-0-0---0-0---0-0---0-0---0-9-|


 ---|     PM----|
  S S S S S S S S S S S S S  S S  S    S  S S   S  S  S  S   E  S  S  S  S   S  S  S
|-----------------------------------|--7-10---------------------------------------------|
|------------------------------6--9-|-------------------11-/14-11-----------------------|
|-------------------------4--7------|-----------------9-----------12--9-----------------|
|---------------------3-6-----------|-------5--/8-11--------------------11-/11-14-17----|
|-----2-5---------2-5---------------|---------------------------------------------------|
|-3-0-----0-6-3-0-------------------|---------------------------------------------------|
|
|---|     PM----|
| S S S S S S S S S S S S S  S S  S    S  S S   S  S  S  S   E  S  S  S  S   S  S  S
|-----------------------------------|-10-13---------------------------------------------|
|------------------------------9-12-|-------------------14-/17-14-----------------------|
|-------------------------7-10------|----------------12-----------15-12-----------------|
|---------------------6-9-----------|-------8-/11-14--------------------14-/14-17-20----|
|-----5-8---------5-8---------------|---------------------------------------------------|
|-6-0-----0-9-6-0-------------------|---------------------------------------------------|


 Riff N
                        Q=105
  Gtr I
                            PM  PM  PM      PM  PM          PM  PM|   PM|
   S  S   E  S  S  S  S E S S S S S S   S   S S S T T S S E S S S S S S  S
|-------------------------------------|-------------------------------------|
|----17-/20-17------------------------|-------------------------------------|
|-15-----------18-15------------------|-------------------------------------|
|--------------------17---------------|-----------------------8-----7-------|
|-------------------------3---1---3---|-5-----3---1-3-1-----5-----5------5--|
|-----------------------1---1---1---1-|-----1---1-------4-5-----5-----5-----|
|
| Gtr II
|                                                           PM  PM|   PM|
|  S  S   E  S  S  S  S H               Q..               E S S S S S S  S
|-------------------------------------|-------------------------------------|
|----20--23-20------------------------|-------------------------------------|
|-18-----------21-18------------------|-----------------------7-----5-------|
|--------------------20---------------|-------------------------------------|
|-------------------------------------|---------------------5-----5------5--|
|-------------------------------------|-------------------5-----5-----5-----|
|
|    Gtr III
|  H                                    Q..               H             +S
|-------------------------------------|-------------------------------------|
|-------------------------------------|-------------------------------------|
|-------------------------------------|-------------------7-------------(7)-|
|-------------------------------------|-------------------8-------------(8)-|
|-------------------------------------|-------------------------------------|
|-------------------------------------|-------------------5-------------(5)-|


      PM|   PM   PM                                                      PM  PM|   PM
   S  S S S S S  S  S +S  S   S S  S S  S S   T    T S  S S S S  S S +S  S S S S S S  S
|-------------------------------------------|----------------------------------------------|
|-------------------------------------------|----------------------------------------------|
|------------------------------------5------|-5----8-5-------------------------------------|
|-10------7---8-----------------4--7----7-4-|-----------7-4----------------8-----7---------|
|-------5-----------------3---6-------------|---------------6-3--0-------5-----5-----------|
|-----5-----5----5--4-(4)-------------------|----------------------5-(5)-----5-----5--8----|
|
|     PM|   PM   PM                                                      PM  PM|   PM
|  S  S S S S S  S  S +S  S   S S  S S  S S   T    T S  S S S S  S S +S  S S S S S S  S
|-------------------------------------------|----------------------------------------------|
|-------------------------------------------|----------------------------------------------|
|--8------5---7----------------------8------|-8---11-8---------------------7-----5---------|
|-------------------------------7-10---10-7-|----------10-7--------------------------------|
|-------5-----------------6---9-------------|---------------9-6----------5-----5-----------|
|-----5-----5----5--4-(4)-------------------|-------------------10-5-(5)-----5-----5--8----|
|
|  Q.           +S  E     Q..                 Q..                  H                  S
|-------------------------------------------|----------------------------------------------|
|-------------------------------------------|----------------------------------------------|
|--7------------(7)-------------------------|----------------------7-----------------10----|
|--8------------(8)-7-----------------------|----------------------8-----------------12----|
|-------------------9-----------------------|----------------------------------------------|
|--5------------(5)-4-----------------------|----------------------5------------------8----|


       PM   PM|      PM
   +S  S  S S S  S   S  E   S S S  S S  S S
|-------------------------------------------|
|-------------------------------------------|
|------------------------------------5------|
|--------12-----10--------------4--7----7-4-|
|------8------8-------------3-6-------------|
|--(8)------8--------8--4-------------------|
|
|      PM   PM|      PM
|  +S  S  S S S  S   S  E   S S S  S S  S S
|-------------------------------------------|
|-------------------------------------------|
|--------10------8-------------------8------|
|-------------------------------7-10---10-7-|
|------8------8-------------6-9-------------|
|--(8)------8--------8--4-------------------|
|
|  +Q.              +S  S H
|-------------------------------------------|
|-------------------------------------------|
|-(10)-------------(10)---------------------|
|-(12)-------------(12)-7-------------------|
|-----------------------9-------------------|
|--(8)--------------(8)-4-------------------|


  T  T S  S S S S  S S  S S S  S S  S S S
|------------------------------------------|
|------------------------------------------|
|-5--8-5---------------11-8-7--------------|
|---------7-4-----------------10-7---------|
|-------------6-3--0---------------10-9-6--|
|------------------------------------------|
|
| T  T S  S S S S  S S  H
|------------------------------------------|
|------------------------------------------|
|-8-11-8-----------------------------------|
|--------10-7------------------------------|
|-------------9-6--------------------------|
|-----------------10-----------------------|
|
| W
|------------------------------------------|
|------------------------------------------|
|------------------------------------------|
|------------------------------------------|
|------------------------------------------|
|------------------------------------------|


 Break
                           Q=200
                                  Gtr V
  H    H      +W           +H     E E E E
|-----------|------------|------------------|
|-----------|------------|------------------|
|-----------|------------|--------------6b7r|
|------0----|-(0)--------|-(0)--------7-----|
|------0----|-(0)--------|-(0)----5-6-------|
|------0----|-(0)--------|-(0)--------------|
|
| H    H      +W           +H     H
|-----------|------------|------------------|
|-----------|------------|------------------|
|-----------|------------|------------------|
|------0----|-(0)--------|-(0)--------------|
|------0----|-(0)--------|-(0)--------------|
|------0----|-(0)--------|-(0)--------------|


 Riff O
  +E  E E E E E E E   E E E E  E E E E
|-------------------|------------------|
|-------------------|------------------|
|-(6)---------3-----|-2s1--------------|
|-----8-----4-----3-|-----2--------4---|
|-------6-3-----2---|-------1-/5-4---6-|
|-------------------|------------------|
|
|  W                  W
|-------------------|------------------|
|-------------------|------------------|
|-------------------|------------------|
|-------------------|------------------|
|-------------------|------------------|
|-------------------|------------------|


        PM|
    E E E E E E  E E      +E   E E  E E E E E   E E E E  E E E E  3x
||----------------------|---------------------|-------------------||
||o---------------------|---------------------|------------------o||
||-----------------6b7r=|=(6)-----------3-----|-2s1---------------||
||---------------7------|------8------4-----3-|-----2--------4----||
||o-3-5-----5-6---------|--------6--3-----2---|-------1-/5-4---6-o||
||------6-3-------------|---------------------|-------------------||
|
|   Gtr VI
|   H       E E  E E      +E   E H.             W                 3x
||----------------------|---------------------|-------------------||
||o---------------------|---------------------|------------------o||
||-----------------9b10r|=(9)-----------------|-------------------||
||--------------10------|-----11--------------|-------------------||
||o---------8-9---------|---------------------|------------------o||
||----------------------|---------------------|-------------------||


      PM|
  E E E E E E  E E      +E   E E E E E E E
|---------------------|--------------------|
|---------------------|--------------------|
|----------------6b7r=|=(6)----------3-----|
|--------------7------|------8-----4-----3-|
|-3-5-----5-6---------|--------6-3-----2---|
|-----6-3-------------|--------------------|
|
| H       E E  E E      +E   E E E E E E E
|---------------------|--------------------|
|---------------------|--------------------|
|----------------9b10r|=(9)----------6-----|
|-------------10------|-----11-----7-----6-|
|---------8-9---------|--------9-6-----5---|
|---------------------|--------------------|


                         PM|
  E E E E  E E E E   E E E E E E  E E
|------------------|----------------------|
|------------------|----------------------|
|-2s1--------------|----------------6b7r==|
|-----2--------4---|--------------7-------|
|-------1-/5-4---6-|-3-5-----5-6----------|
|------------------|-----6-3--------------|
|
| E E E E  E E E E   E E E E E E  E E
|------------------|----------------------|
|------------------|----------------------|
|-5s4--------------|----------------9b10r=|
|-----5--------7---|-------------10-------|
|-------4-/8-7---9-|-6-8-----8-9----------|
|------------------|-----9-6--------------|


                                         7/4
                                              PM|   PM  PM|     PM    PM
  +E   E E E E E E E   E E E E  E E E E   E E E E E E E E E  E  E  E  E  E
|--------------------|------------------|----------------------------------|
|--------------------|------------------|---------8---8-----11----11----11-|
|-(6)----------3-----|-2s1--------------|----------------------------------|
|------8-----4-----3-|-----2--------4---|-----------8---8-8----11----11----|
|--------6-3-----2---|-------1-/5-4---6-|-3-5------------------------------|
|--------------------|------------------|-----6-3--------------------------|
|
|                                                   PM  PM|     PM    PM
| +E   E E E E E E E   E E E E  E E E E   E E E E E E E E E  E  E  E  E  E
|--------------------|------------------|----------------------------------|
|--------------------|------------------|---------8---8-----11----11----11-|
|-(9)----------6-----|-5s4--------------|----------------------------------|
|-----11-----7-----6-|-----5--------7---|-----------8---8-8----11----11----|
|--------9-6-----5---|-------4-/8-7---9-|-6-8------------------------------|
|--------------------|------------------|-----9-6--------------------------|


 4/4
                                                          PM|
  E E  E E    +E   E E E   E E E E E E E E    E E E E E E E E
|------------------------|-----------------|------------------|
|------------------------|-----------------|------------------|
|--------6b7r=(6)--------|---3-----2s1-----|------------------|
|------7-----------8-----|-4-----3-----2---|------4-----------|
|-5-6----------------6-3-|-----2---------1-|-/5-4---6-3-5-----|
|------------------------|-----------------|--------------6-3-|
|
| E E  E E    +E   E E E   E E E E E E E E    E E E E E E E E
|------------------------|-----------------|------------------|
|------------------------|-----------------|------------------|
|--------9b10r(9)--------|---6-----5s4-----|------------------|
|-----10----------11-----|-7-----6-----5---|------7-----------|
|-8-9----------------9-6-|-----5---------4-|-/8-7---9-6-8-----|
|------------------------|-----------------|--------------9-6-|


  E E  E E    +E   E E E   E E E E E E E E
|------------------------|-----------------|
|------------------------|-----------------|
|--------6b7r=(6)--------|---3-----2s1-----|
|------7-----------8-----|-4-----3-----2---|
|-5-6----------------6-3-|-----2---------1-|
|------------------------|-----------------|
|
| E E  E E    +E   E E E   E E E E E E E E
|------------------------|-----------------|
|------------------------|-----------------|
|--------9b10r(9)--------|---6-----5s4-----|
|-----10----------11-----|-7-----6-----5---|
|-8-9----------------9-6-|-----5---------4-|
|------------------------|-----------------|


                    5/4
               PM|     PM  PM|     PM    PM
   E E E E E E E E   E E E E E  E  E  E  E  E
|------------------|---------------------------|
|------------------|-8---8-----11----11----11--|
|------------------|---------------------------|
|------4-----------|---8---8-8----11----11-----|
|-/5-4---6-3-5-----|---------------------------|
|--------------6-3-|---------------------------|
|
|                      PM  PM|     PM    PM
|  E E E E E E E E   E E E E E  E  E  E  E  E
|------------------|---------------------------|
|------------------|-8---8-----11----11----11--|
|------------------|---------------------------|
|------7-----------|---8---8-8----11----11-----|
|-/8-7---9-6-8-----|---------------------------|
|--------------9-6-|---------------------------|


 4/4
                                                          PM|
  E E  E E    +E   E E E   E E E E E E E E    E E E E E E E E
|------------------------|-----------------|------------------|
|------------------------|-----------------|------------------|
|--------6b7r=(6)--------|---3-----2s1-----|------------------|
|------7-----------8-----|-4-----3-----2---|------4-----------|
|-5-6----------------6-3-|-----2---------1-|-/5-4---6-3-5-----|
|------------------------|-----------------|--------------6-3-|
|
| E E  E E    +E   E E E   E E E E E E E E    E E E E E E E E
|------------------------|-----------------|------------------|
|------------------------|-----------------|------------------|
|--------9b10r(9)--------|---6-----5s4-----|------------------|
|-----10----------11-----|-7-----6-----5---|------7-----------|
|-8-9----------------9-6-|-----5---------4-|-/8-7---9-6-8-----|
|------------------------|-----------------|--------------9-6-|


   Riff P
    Q=140
    Gtr I
    PM-------|                                    PM--------
                   |--3--|    |------3-------|
    E Q  S S E Q   S  S  S    S  S  S  S  S  S Q  E Q  S S
||-------------------------|--9-12--9----------------------|
||o---------------------11-|----------11-------------------|
||-----------------9-12----|-------------12--9-------------|
||-------------------------|-------------------------------|
||o-3----4-4-3-------------|----------------------3----4-4-|
||--3----4-4-3-------------|----------------------3----4-4-|
|
|   Gtr II
|   PM-------|                                    PM--------
|                  |--3--|    |------3-------|
|   E Q  S S E Q   S  S  S    S  S  S  S  S  S Q  E Q  S S
||-------------------------|-15-18-15----------------------|
||o---------------------17-|----------17-------------------|
||----------------15-18----|-------------18-15-------------|
||-------------------------|-------------------------------|
||o-3----4-4-3-------------|----------------------3----4-4-|
||--3----4-4-3-------------|----------------------3----4-4-|


 -|
        |--3--|  |------3-------|
  E Q   S  S  S  S  S  S  S  S  S Q   4x
|----------------9-12--9--------------||
|------------11----------11----------o||
|-------9-12----------------12--9-----||
|-------------------------------------||
|-3----------------------------------o||
|-3-----------------------------------||
|
|-|
|       |--3--|  |------3-------|
| E Q   S  S  S  S  S  S  S  S  S Q   4x
|---------------15-18-15--------------||
|------------17----------17----------o||
|------15-18----------------18-15-----||
|-------------------------------------||
|-3----------------------------------o||
|-3-----------------------------------||


   Outro
    Q=230
                                           5/4
    PM----|       PM----------|       PM------|       PM|
    E E E E S S E E E   E E E E S S E E E   E E E E E E  E  E E  E
||--------------------|-------------------|-------------------------||
||o-------------------|-------------------|------------------------o||
||--------------------|-------------------|-------------------------||
||----------3-6-3-----|---------3-6-3-----|-------6-9---------9-12--||
||o-------5-------5---|-------5-------5---|-----8----------11------o||
||--0-3-6-----------6-|-0-3-6-----------6-|-6-9-------9-12----------||
|
|   PM----|       PM----------|       PM------|       PM|
|   E E E E S S E E E   E E E E S S E E E   E E E E E E  E  E E  E
||--------------------|-------------------|-------------------------||
||o-------------------|-------------------|------------------------o||
||--------------------|-------------------|-------------------------||
||----------3-6-3-----|---------3-6-3-----|-------3-6---------6--9--||
||o-------5-------5---|-------5-------5---|-----5-----------8------o||
||--0-3-6-----------6-|-0-3-6-----------6-|-3-6-------6--9----------||



Duration Legend
---------------
W - whole; H - half; Q - quarter; E - 8th; S - 16th; T - 32nd; X - 64th; a - acciaccatura
+ - note tied to previous; . - note dotted; .. - note double dotted
Uncapitalized letters represent notes that are staccato (1/2 duration)
Irregular groupings are notated above the duration line
Duration letters will always appear directly above the note/fret number it represents the
duration for.  Duration letters with no fret number below them represent rests.  Multi-
bar rests are notated in the form Wxn, where n is the number of bars to rest for.  Low
melody durations appear below the staff

Tablature Legend
----------------
 h   - hammer-on
 p   - pull-off
 b   - bend
 pb  - pre-bend
 r   - bend release (if no number after the r, then release immediately)
 /\  - slide into or out of (from/to "nowhere")
 s   - legato slide
 S   - shift slide
<n> - natural harmonic
[n]  - artificial harmonic
n(n) - tapped harmonic
 ~   - vibrato
 tr  - trill
 T   - tap
 TP  - trem. picking
 PM  - palm muting
\n/  - tremolo bar dip; n = amount to dip
 \n  - tremolo bar down
 n/  - tremolo bar up
/n\  - tremolo bar inverted dip
 =   - hold bend; also acts as connecting device for hammers/pulls
 <> - volume swell (louder/softer)
 x   - on rhythm slash represents muted slash
 o   - on rhythm slash represents single note slash

Misc Legend
-----------
 |  - bar
||  - double bar
||o - repeat start
o|| - repeat end
*|  - double bar (ending)
 :  - bar (freetime)
 $  - Segno
 &  - Coda
Tempo markers - <E/E./Q/Q./H/H.> = BPM(8/16=s8/s16), where s8 = swing 8ths, s16 = swing 16ths


** Generated using Power Tab Editor by Brad Larsen: The Official Power Tab Web Site
comments
print report bad tab
4 comments total. Showing first comments.
0 reply
guitarwannabe16 wrote on June 28 2007, 02:58 pm

Thanks again dude. I really think people will benefit for having both formats but im just to lazy to do both haha. Great Job!

0 reply
TMA-2 wrote on June 28 2007, 10:11 pm

well played, sir, well played.

0 reply
MetalorDIE wrote on June 29 2007, 12:12 am

this is an insane tab! it's perfect! keep up the great work man! you should do some beneath the massacre, they are within the same vein as these guys! again great job!

I want to post or [tab]
guest
You may want to rate the tab now too:
select rating
Please do not post tabs as comments. Select "correction" instead!