Oops, an error
Loading. Please wait.

Pestilence Tab

ver1
ver1

Whole song

Interactive

More versions @911Tabs.com
18,733 views 3 this week
8 commentsread comments
1 2 3 4 5
excellent!
x 8
Autoscroll
+/-
esc
set tempo
stop
Contributor
Difficulty
advanced
Hey! There's an official Ultimate Guitar app which is ideal
for learning songs when you're away from computer. Get the app
WARNING: You are trying to view
                                    content from Ultimate-Guitar.com
                                    in an unauthorized application,
                                    which is prohibited.

                                    Please use an official Ultimate
                                    Guitar Tabs application for iPhone,
                                    iPad or Android to access legitimate
                                    chords, guitar, bass, and drum tabs
                                    from Ultimate-Guitar.com database.

                                    Type "ultimate guitar tabs" in Apple
                                    App Store's or Android Market's
                                    search to find the application.
#----------------------------------PLEASE NOTE---------------------------------#
#This file is the author's own work and represents their interpretation of the #
#song. You may only use this file for private study, scholarship, or research. #
#------------------------------------------------------------------------------#

PESTILENCE
As recorded by The Faceless
(From the 2007 Album AKELDAMA)

Transcribed by Eric De La Torre
        

Words and Music by The Faceless
Arranged by The Faceless

Gtr I (C G C F A D) - 'Guitar I'
Gtr II (C G C F A D) - 'Guitar II'
Gtr III (C G C F A D) - 'Solo Guitar'
Gtr IV (C G C F A D) - 'Synth I'

 Intro
  Q=140
 4/4
  Gtr I
    PM------|                    PM|
  S S S S S S S S Q    S S S S   S S Q.     S S S  S S S S  S
|------------------------------|------------------------------|
|------------------------------|------------------------------|
|------------------------------|-------------------------2-/5-|
|----------------------4-------|----------------4-/7----------|
|-3-----------3-6-5------5-6-3-|-----5tr6---0-3------3-6------|
|---4-1-0-1-4------------------|-4-1--------------------------|
|
| Gtr II
| S H               E. S S E     H          S S S  S S S S  S
|------------------------------|------------------------------|
|------------------------------|------------------------------|
|------------------------------|-------------------------2-/5-|
|-5----------------------------|----------------4-/7----------|
|-3--------------------4-0-----|------------0-3------3-6------|
|----------------------4-0-----|------------------------------|


    PM------|                  PM|
  S S S S S S S S Q  S S S S   S S Q.     S S S  S S S S  S
|----------------------------|-------------------------------|
|----------------------------|-------------------------------|
|----------------------------|-------------------------2-/5--|
|--------------------4-------|----------------4-/7-----------|
|-3-----------3-6-5----5-6-3-|-----5tr6---0-3------3-6-------|
|---4-1-0-1-4----------------|-4-1---------------------------|
|
|   PM------|                  PM|
| S S S S S S S S Q  S S S S   S S Q.     S S S  S S S S  S
|----------------------------|-------------------------------|
|----------------------------|-------------------------------|
|----------------------------|-------------------------2-/5--|
|--------------------4-------|-----4tr5-------4-/7-----------|
|-3-----------3-6-5----5-6-3-|------------0-3------3-6-------|
|---4-1-0-1-4----------------|-4-1---------------------------|


    PM------|                   PM|
  S S S S S S S S Q  S S  S S   S S Q.     S S S  S S S S  S
|-----------------------------|------------------------------|
|-----------------------------|------------------------------|
|-----------------------------|-------------------------2-/5-|
|--------------------4--------|----------------4-/7----------|
|-3-----------3-6-5----5--6-3-|-----5tr6---0-3------3-6------|
|---4-1-0-1-4-----------------|-4-1--------------------------|
|
|   PM------|                   PM|
| S S S S S S S S Q  S S  S S   S S Q.     S S S  S S S S  S
|-----------------------------|------------------------------|
|-----------------------------|------------------------------|
|-----------------------------|------------------------------|
|---------------5-4--8--------|-----4tr5-------4-/7-----4-/7-|
|-3-----------3--------9-10-6-|------------0-3------3-6------|
|---4-1-0-1-4-----------------|-8-5--------------------------|


    PM------|                   PM|
  S S S S S S S S Q  S S  S S   S S Q.      S S S  S S S S  S
|-----------------------------|---------------------------------|
|-----------------------------|---------------------------------|
|-----------------------------|--------------------------2-/5---|
|--------------------4--------|-----------------4-/7------------|
|-3-----------3-6-5----5--6-3-|-----5tr6----0-3------3-6--------|
|---4-1-0-1-4-----------------|-4-1-----------------------------|
|
|   PM------|                   PM|
| S S S S S S S S Q  S S  S S   S S Q.      S S S  S S S S  S
|-----------------------------|---------------------------------|
|-----------------------------|---------------------------------|
|-----------------------------|---------------------------------|
|---------------5-4--8--------|-----------------4-/7-----4-/7---|
|-3-----------3--------9-10-6-|-----9tr10---0-3------3-6--------|
|---4-1-0-1-4-----------------|-8-5-----------------------------|


 Prog Riff
           PM|          PM------------|      PM|
                            |----3----|
  S S  S S S S S S  S S S S S S S S S S    E E E  E  S S S S  S S S S
|---------------------------------------|-----------------------------|
|---------------------------------------|-----------------------------|
|---------------------------------------|-----------------------------|
|-8------------8------------------------|--------/4-------------------|
|---9-10-6-------9-10-6-----------------|-/5-1-4-----6-3-5----6-3-5---|
|----------8-5----------8-5-4-4-4-4-4-4-|----1-4-----------4--------4-|
|
|          PM|          PM------------|      PM|
|                           |----3----|
| S S  S S S S S S  S S S S S S S S S S    E E E  E  S S S S  S S S S
|---------------------------------------|-----------------------------|
|---------------------------------------|-----------------------------|
|---------------------------------------|-----------------------------|
|-8------------8------------------------|-----------------------------|
|---9-10-6-------9-10-6-----------------|----1-4-/6-10-6-9---10-6-9---|
|----------8-5----------8-5-4-4-4-4-4-4-|-/7-1-4-----------7--------7-|


      PM--------|    TPTPTPTP      PM
      |----3----|
  E E T T T T T T E  E E E E    Q  E H    E
|----------------------------|--------------|
|----------------------------|--------------|
|----------------------------|--------------|
|----------------------------|--------------|
|-5-4-1-1-1-1-1-1-0--6-3-----|-/5--0--------|
|-5-4-1-1-1-1-1-1-0------5-1-|-----0--------|
|
|     PM--------|    TPTPTPTP      PM
|     |----3----|
| E E T T T T T T E  E E E E    Q  E H    E
|----------------------------|--------------|
|----------------------------|--------------|
|----------------------------|--------------|
|----------------------------|--------------|
|-5-4-1-1-1-1-1-1-0-10-6-----|-/9--0--------|
|-5-4-1-1-1-1-1-1-0------8-5-|-----0--------|


 Best Part
   TP TP  TP  TP TP   TP   TP      TP
   Q  Q   Q   E  E    H    H       H     S  S  E  E  E
|------------------|------------|-----------------------|
|------------------|------------|-----------------------|
|------------------|------------|-----------------------|
|------------------|------------|--------4--5--4-----4--|
|--5------5---3--5-|--6---------|-----------------6-----|
|-----0------------|-------1----|-/4--------------------|
|
|  TP TP  TP  TP TP   TP   TP      TP
|  Q  Q   Q   E  E    H    H       H     S  S  E  E  E
|------------------|------------|-----------------------|
|------------------|------------|-----------------------|
|------------------|------------|-----------------------|
|------------------|------------|-------11-12-11----11--|
|-12-----12--10-12-|-13---------|----------------13-----|
|-----0------------|-------1----|-/4--------------------|


   TP   TP  TP TP   TP   TP      TP                        PM----------|
   H    Q   E  E    H    H       H     S  S  E  E  E   Q   E E S S E E E
|----------------|------------|----------------------|-------------------|
|----------------|------------|----------------------|-------------------|
|----------------|------------|----------------------|-------------------|
|----------------|------------|--------4--5--4-----4-|-7\----------------|
|--5--------3--5-|--6---------|-----------------6----|-5\--0-0-0-0-0-0-0-|
|-------0--------|-------1----|-/4-------------------|-----0-0-0-0-0-0-0-|
|
|  TP   TP  TP TP   TP   TP      TP                        PM----------|
|  H    Q   E  E    H    H       H     S  S  E  E  E   Q   E E S S E E E
|----------------|------------|----------------------|-------------------|
|----------------|------------|----------------------|-------------------|
|----------------|------------|----------------------|-------------------|
|----------------|------------|-------11-12-11----11-|-7\----------------|
|-12-------10-12-|-13---------|----------------13----|-5\--0-0-0-0-0-0-0-|
|-------0--------|-------1----|-/4-------------------|-----0-0-0-0-0-0-0-|


 Reprise
      PM------|                          PM|
  Q   E E S S E E E   Q  Q   Q  E E   Q  E E  S  S  E E  E
|-------------------|---------------|----------------------|
|-------------------|---------------|----------------------|
|-------------------|---------------|----------------------|
|-7\------------5-7-|-8--8\---------|--------11-12-11-8-11-|
|-5\--0-0-0-0-0-3-5-|-6--6\--1--1-4-|-4--4-4--9-10--9-6--9-|
|-----0-0-0-0-0-----|--------1--1-4-|-4--4-4---------------|
|
| W                   W               W
|-------------------|---------------|----------------------|
|-------------------|---------------|----------------------|
|-------------------|---------------|----------------------|
|-0-----------------|-1-------------|-4--------------------|
|-0-----------------|-1-------------|-4--------------------|
|-0-----------------|-1-------------|-4--------------------|
|
| Gtr III
| W                   W               W
|-------------------|---------------|----------------------|
|-------------------|---------------|----------------------|
|-------------------|---------------|----------------------|
|-------------------|---------------|----------------------|
|-------------------|---------------|----------------------|
|-------------------|---------------|----------------------|


      PM-----------------------|
  Q   E E S   S    E      S    S    E
|-------------------------------------------|
|-------------------------------------------|
|-------------------------------------------|
|-7\----------------------------------------|
|-5\--0-0-0---0-----------0----0------------|
|-----0-0-0---0-----------0----0------------|
|
|         PM-------------------|
| H       S   S    E      S    S    E
|-------------------------------------------|
|-------------------------------------------|
|-------------------------------------------|
|-0-----------------------------------------|
|-0-------0---0-----------0----0------------|
|-0-------0---0-----------0----0------------|
|
|         |---------------3---------------|
| H       S S    S S S  S S  S    S S  S  S
|-----------------------------------8-10-11-|
|-------------------------8-10---11---------|
|------------------7-8-10-------------------|
|---------7-8---10--------------------------|
|-------------------------------------------|
|-------------------------------------------|


 Solo
       PM---------|
   Q   E E   S  S   E E  E    Q   Q   Q   E       E
|--------------------------|-----------------------------|
|--------------------------|-----------------------------|
|--------------------------|-----------------------------|
|--7\-----------------5--7-|--8---8\---------------------|
|--5\--0-0---0--0---0-3--5-|--6---6\--1---1-------4------|
|------0-0---0--0---0------|----------1---1-------4------|
|
|      PM---------|
|  Q   E E   S  S   E E  E    Q   Q   Q   E       E
|--------------------------|-----------------------------|
|--------------------------|-----------------------------|
|--------------------------|-----------------------------|
|--7\-----------------5--7-|--8---8\---------------------|
|--5\--0-0---0--0---0-3--5-|--6---6\--1---1-------4------|
|------0-0---0--0---0------|----------1---1-------4------|
|
|  ~~~~~~~~~~~~~              ~~~
|                                         |-----3------|
|  H        +E      Q    E    H.          S  S S  S  S S
|-10-------(10)---/15---14-|-11----------11-10-8---------|
|--------------------------|---------------------11-10-8-|
|--------------------------|-----------------------------|
|--------------------------|-----------------------------|
|--------------------------|-----------------------------|
|--------------------------|-----------------------------|


      PM|                                     PM-----------|
  Q   E E    S  S   E       E   E   Q         E  E S S E E E
|---------------------------------|---------------------------|
|---------------------------------|---------------------------|
|---------------------------------|---------------------------|
|-----------11-12--11-------8--11-|-7\------------------------|
|-4---4-4----9-10---9-------6---9-|-5\--------0--0-0-0-0-0-0--|
|-4---4-4-------------------------|-----------0--0-0-0-0-0-0--|
|
|     PM|                                     PM-----------|
| Q   E E    S  S   E       E   E   Q         E  E S S E E E
|---------------------------------|---------------------------|
|---------------------------------|---------------------------|
|---------------------------------|---------------------------|
|-----------11-12--11-------8--11-|-7\------------------------|
|-4---4-4----9-10---9-------6---9-|-5\--------0--0-0-0-0-0-0--|
|-4---4-4-------------------------|-----------0--0-0-0-0-0-0--|
|
| Q.    S S  E     +E      +E   E   E  +E    +E  E H
|---------------------------------|---------------------------|
|-7-----7-8-10----(10)b11r(10)--8-|-7--(7)b8r(7)--------------|
|---------------------------------|--------------8-7----------|
|---------------------------------|---------------------------|
|---------------------------------|---------------------------|
|---------------------------------|---------------------------|


                 PM---------------------|
  Q              E      E      S    S   E      E       E         Q  Q     Q      E  E
|-------------------------------------------------------------|-----------------------|
|-------------------------------------------------------------|-----------------------|
|-------------------------------------------------------------|-----------------------|
|-7\-------------------------------------------5-------7------|--8--8\----------------|
|-5\-------------0------0------0----0---0------3-------5------|--6--6\----1------1--4-|
|----------------0------0------0----0---0---------------------|-----------1------1--4-|
|
|                PM---------------------|
| Q              E      E      S    S   E      E       E         Q  Q     Q      E  E
|-------------------------------------------------------------|-----------------------|
|-------------------------------------------------------------|-----------------------|
|-------------------------------------------------------------|-----------------------|
|-7\-------------------------------------------5-------7------|--8--8\----------------|
|-5\-------------0------0------0----0---0------3-------5------|--6--6\----1------1--4-|
|----------------0------0------0----0---0---------------------|-----------1------1--4-|
|
| PM-----------------|                                           ~~~~~~~~~~~~
| |----------------------------3----------------------------|
| S  S  S S  S S S S  S S S  S S  S   S S S  S S S  S  S S  S    H       +E    Q    E
|--------------------------------------------------------8-10-|-11------(11)-/15---14-|
|------------------------------7---------------7-8-10-11------|-----------------------|
|---------7-------------7-8-10---10---8-7-8-10----------------|-----------------------|
|-7--8-10---10-8-7-8-10---------------------------------------|-----------------------|
|-------------------------------------------------------------|-----------------------|
|-------------------------------------------------------------|-----------------------|


       PM|                                     PM--------------|
    Q  E E  S  S  E    E     E    Q            E   E  S  S E E  E
|------------------------------|-----------------------------------------|
|------------------------------|-----------------------------------------|
|------------------------------|-----------------------------------------|
|----------11-12-11----8----11-|--7\-------------------------------------|
|---4--4-4--9-10--9----6-----9-|--5\-----------0---0--0--0-0-0--0--------|
|---4--4-4---------------------|---------------0---0--0--0-0-0--0--------|
|
|      PM|                                     PM--------------|
|   Q  E E  S  S  E    E     E    Q            E   E  S  S E E  E
|------------------------------|-----------------------------------------|
|------------------------------|-----------------------------------------|
|------------------------------|-----------------------------------------|
|----------11-12-11----8----11-|--7\-------------------------------------|
|---4--4-4--9-10--9----6-----9-|--5\-----------0---0--0--0-0-0--0--------|
|---4--4-4---------------------|---------------0---0--0--0-0-0--0--------|
|
|           |------3------|                                     |--3--|
|   H       q        q    q       E   +E      +E   E  Q.        S  S  S
|-/18------18-------17---15----|-14--(14)b15r(14)------------------------|
|------------------------------|------------------16-15------------------|
|------------------------------|-------------------------------11-12-14--|
|------------------------------|-----------------------------------------|
|------------------------------|-----------------------------------------|
|------------------------------|-----------------------------------------|


                     PM--------------------------|
   Q                 E        E        S    S     E        E     E
|------------------------------------------------------------------------|
|------------------------------------------------------------------------|
|------------------------------------------------------------------------|
|--7\------------------------------------------------------5-----7-------|
|--5\----------------0--------0--------0----0-----0--------3-----5-------|
|--------------------0--------0--------0----0-----0----------------------|
|
|                    PM--------------------------|
|  Q                 E        E        S    S     E        E     E
|------------------------------------------------------------------------|
|------------------------------------------------------------------------|
|------------------------------------------------------------------------|
|--7\------------------------------------------------------5-----7-------|
|--5\----------------0--------0--------0----0-----0--------3-----5-------|
|--------------------0--------0--------0----0-----0----------------------|
|
|  T                 T                 T                   T
|  |----------------------------3-----------------------------|  |--3--|
|  S  S  S  S  S  S  S  S  S  S  S  S  S  S    S  S  S  S  S  E  S  S  S
|------------------------------------------------------------------------|
|---------------------------------------------------------------11h13h15-|
|-15p14p12p11h12h14-15p14p12p11h12h14-15p14p==12p11h12h14-15p14----------|
|------------------------------------------------------------------------|
|------------------------------------------------------------------------|
|------------------------------------------------------------------------|


   Q                 Q                 Q                 E     E
|------------------------------------------------------------------------|
|------------------------------------------------------------------------|
|------------------------------------------------------------------------|
|--8-----------------8\--------------------------------------------------|
|--6-----------------6\----------------1-----------------1-----4---------|
|--------------------------------------1-----------------1-----4---------|
|
|  Q                 Q                 Q                 E     E
|------------------------------------------------------------------------|
|------------------------------------------------------------------------|
|------------------------------------------------------------------------|
|--8-----------------8\--------------------------------------------------|
|--6-----------------6\----------------1-----------------1-----4---------|
|--------------------------------------1-----------------1-----4---------|
|
|  T                 T                 T                 T
|  |---------------------------3----------------------------|  |--3--|
|  S  S  S  S  S  S  S  S  S  S  S  S  S  S  S  S  S  S  S  E  S  S  S
|-------------------------------------------------------------10-11-13---|
|-16p15p13p11h13h15-16p15p13p11h13h15h16-15p13p11h13h15-16p15------------|
|------------------------------------------------------------------------|
|------------------------------------------------------------------------|
|------------------------------------------------------------------------|
|------------------------------------------------------------------------|


                     PM------|
   Q                 E        E        S     S     E        E     E
|-------------------------------------------------------------------------|
|-------------------------------------------------------------------------|
|-------------------------------------------------------------------------|
|-------------------------------------11----12----11--------8----11-------|
|--4-----------------4--------4--------9----10-----9--------6-----9-------|
|--4-----------------4--------4-------------------------------------------|
|
|                    PM------|
|  Q                 E        E        S     S     E        E     E
|-------------------------------------------------------------------------|
|-------------------------------------------------------------------------|
|-------------------------------------------------------------------------|
|-------------------------------------11----12----11--------8----11-------|
|--4-----------------4--------4--------9----10-----9--------6-----9-------|
|--4-----------------4--------4-------------------------------------------|
|
|  T                 T                 T                    T
|  |-----------------------------3-----------------------------|  |--3--|
|  S  S  S  S  S  S  S  S  S  S  S  S  S  S     S  S  S  S  S  E  S  S  S
|-14p13p11p10h11h13-14p13p11p10h11h13-14p13p===11p10h11h13-14p13----------|
|----------------------------------------------------------------11h13h15-|
|-------------------------------------------------------------------------|
|-------------------------------------------------------------------------|
|-------------------------------------------------------------------------|
|-------------------------------------------------------------------------|


                    PM-------------------|
   Q                E   E   S  S  E   E  E
|-------------------------------------------|
|-------------------------------------------|
|-------------------------------------------|
|--7\---------------------------------------|
|--5\---------------0---0---0--0--0---0--0--|
|-------------------0---0---0--0--0---0--0--|
|
|                   PM-------------------|
|  Q                E   E   S  S  E   E  E
|-------------------------------------------|
|-------------------------------------------|
|-------------------------------------------|
|--7\---------------------------------------|
|--5\---------------0---0---0--0--0---0--0--|
|-------------------0---0---0--0--0---0--0--|
|
|  T
|  |-----3-----|    |---------3----------|
|  S  S  S  S. S.   E.  E.  E.    E.  E. E.
|-------------------------------------------|
|-16p15p13p11p10----------------------------|
|-------------------------------------------|
|-----------------/12--10-------------------|
|--------------------------13----12--10--9--|
|-------------------------------------------|


 Fill
      PM------|
  Q   E E S S E E E   Q  Q   Q  E E
|-------------------|---------------|
|-------------------|---------------|
|-------------------|---------------|
|-7\------------5-7-|-8--8\---------|
|-5\--0-0-0-0-0-3-5-|-6--6\--1--1-4-|
|-----0-0-0-0-0-----|--------1--1-4-|
|
|     PM------|
| Q   E E S S E E E   Q  Q   Q  E E
|-------------------|---------------|
|-------------------|---------------|
|-------------------|---------------|
|-7\------------5-7-|-8--8\---------|
|-5\--0-0-0-0-0-3-5-|-6--6\--1--1-4-|
|-----0-0-0-0-0-----|--------1--1-4-|


     PM|                     PM----------|
  Q  E E  S  S  E E  E   Q   E E S S E S S E
|----------------------|---------------------|
|----------------------|---------------------|
|----------------------|---------------------|
|--------11-12-11-8-11-|-7\------------------|
|-4--4-4--9-10--9-6--9-|-5\--0-0-0-0---0-0---|
|-4--4-4---------------|-----0-0-0-0---0-0---|
|
|    PM|                     PM----------|
| Q  E E  S  S  E E  E   Q   E E S S E S S E
|----------------------|---------------------|
|----------------------|---------------------|
|----------------------|---------------------|
|--------11-12-11-8-11-|-7\------------------|
|-4--4-4--9-10--9-6--9-|-5\--0-0-0-0---0-0---|
|-4--4-4---------------|-----0-0-0-0---0-0---|


 Intro Reprise
    PM------|
  S S S S S S S S Q    S S S S   S S Q.     S S S  S S S S  S
|------------------------------|------------------------------|
|------------------------------|------------------------------|
|------------------------------|-------------------------2-/5-|
|----------------------4-------|----------------4-/7----------|
|-3-----------3-6-5------5-6-3-|-----5tr6---0-3------3-6------|
|---4-1-0-1-4------------------|-4-1--------------------------|
|
| S H               E. S S E     H          S S S  S S S S  S
|------------------------------|------------------------------|
|------------------------------|------------------------------|
|------------------------------|-------------------------2-/5-|
|-5----------------------------|----------------4-/7----------|
|-3--------------------4-0-----|------------0-3------3-6------|
|----------------------4-0-----|------------------------------|


    PM------|
  S S S S S S S S Q  S S  S S   S S Q.     S S S  S S S S  S
|-----------------------------|--------------------------------|
|-----------------------------|--------------------------------|
|-----------------------------|-------------------------2-/5---|
|--------------------4--------|----------------4-/7------------|
|-3-----------3-6-5----5--6-3-|-----5tr6---0-3------3-6--------|
|---4-1-0-1-4-----------------|-4-1----------------------------|
|
|   PM------|                   PM|
| S S S S S S S S Q  S S  S S   S S Q.     S S S  S S S S  S
|-----------------------------|--------------------------------|
|-----------------------------|--------------------------------|
|-----------------------------|--------------------------------|
|---------------5-4--8--------|-----4tr5-------4-/7-----4-/7---|
|-3-----------3--------9-10-6-|------------0-3------3-6--------|
|---4-1-0-1-4-----------------|-8-5----------------------------|


    PM------|                   PM|
  S S S S S S S S Q  S S  S S   S S Q.     S S S  S S S S  S
|-----------------------------|------------------------------|
|-----------------------------|------------------------------|
|-----------------------------|-------------------------2-/5-|
|--------------------4--------|----------------4-/7----------|
|-3-----------3-6-5----5--6-3-|-----5tr6---0-3------3-6------|
|---4-1-0-1-4-----------------|-4-1--------------------------|
|
|   PM------|                   PM|
| S S S S S S S S Q  S S  S S   S S Q.     S S S  S S S S  S
|-----------------------------|------------------------------|
|-----------------------------|------------------------------|
|-----------------------------|------------------------------|
|---------------5-4--8--------|-----4tr5-------4-/7-----4-/7-|
|-3-----------3--------9-10-6-|------------0-3------3-6------|
|---4-1-0-1-4-----------------|-8-5--------------------------|


           PM|          PM------------|      PM|
                            |----3----|
  S S  S S S S S S  S S S S S S S S S S    E E E  E  S S S S  S S S S
|---------------------------------------|--------------------------------|
|---------------------------------------|--------------------------------|
|---------------------------------------|--------------------------------|
|-8------------8------------------------|--------/4----------------------|
|---9-10-6-------9-10-6-----------------|-/5-1-4-----6-3-5----6-3-5------|
|----------8-5----------8-5-4-4-4-4-4-4-|----1-4-----------4--------4----|
|
|          PM|          PM------------|      PM|
|                           |----3----|
| S S  S S S S S S  S S S S S S S S S S    E E E  E  S S S S  S S S S
|---------------------------------------|--------------------------------|
|---------------------------------------|--------------------------------|
|---------------------------------------|--------------------------------|
|-8------------8------------------------|--------------------------------|
|---9-10-6-------9-10-6-----------------|----1-4-/6-10-6-9---10-6-9------|
|----------8-5----------8-5-4-4-4-4-4-4-|-/7-1-4-----------7--------7----|


 Prog Riff II
      PM--------|    TPTPTPTP
      |----3----|
  E E T T T T T T E  E E E E
|----------------------------|
|----------------------------|
|----------------------------|
|----------------------------|
|-5-4-1-1-1-1-1-1-0--6-3-----|
|-5-4-1-1-1-1-1-1-0------5-1-|
|
|     PM--------|    TPTPTPTP
|     |----3----|
| E E T T T T T T E  E E E E
|----------------------------|
|----------------------------|
|----------------------------|
|----------------------------|
|-5-4-1-1-1-1-1-1-0-10-6-----|
|-5-4-1-1-1-1-1-1-0------8-5-|


                           3/4
      PM  PM----------------|
   Q  E E S S S S S S S S   S S S S S S S S S S S S
|-------------------------|--------------------------|
|-------------------------|--------------------------|
|-------------------------|---------------2-3--------|
|-------------------------|---------3-4-1-----1------|
|-/5--0-------------------|---4-0-1------------------|
|-----0---0-1-3-4-3-1-0-1-|-3-------------------5-4--|
|
|     PM  PM----------------|
|  Q  E E S S S S S S S S   S S S S S S S S S S S S
|-------------------------|--------------------------|
|-------------------------|--------------------------|
|-------------------------|---------------2-3--------|
|-------------------------|---------3-4-1-----1------|
|-/9--0-------------------|---4-0-1------------------|
|-----0---0-1-3-4-3-1-0-1-|-3-------------------5-4--|


   Breakdown I
   6/4
    PM--------------------------------------------|
    T T T S S. T T T S S. E T T T S S. T T T S S. E E E
||------------------------------------------------------|
||o-----------------------------------------------------|
||------------------------------------------------------|
||--5-5-5-5----5-5-5-5----0-4-4-4-4----4-4-4-4----0-5-4-|
||o-5-5-5-5----5-5-5-5----0-4-4-4-4----4-4-4-4----0-1-0-|
||--5-5-5-5----5-5-5-5----0-4-4-4-4----4-4-4-4----0-1-0-|
|
|   PM--------------------------------------------|
|   T T T S S. T T T S S. E T T T S S. T T T S S. E E E
||------------------------------------------------------|
||o-----------------------------------------------------|
||------------------------------------------------------|
||--5-5-5-5----5-5-5-5----0-4-4-4-4----4-4-4-4----0-5-4-|
||o-5-5-5-5----5-5-5-5----0-4-4-4-4----4-4-4-4----0-1-0-|
||--5-5-5-5----5-5-5-5----0-4-4-4-4----4-4-4-4----0-1-0-|


  PM--------------------------------------------|
  T T T S S. T T T S S. E T T T S S. T T T S S. E E E
|---------------------------------------------------------||
|--------------------------------------------------------o||
|---------------------------------------------------------||
|-5-5-5-5----5-5-5-5----0-4-4-4-4----4-4-4-4----0-5-4-----||
|-5-5-5-5----5-5-5-5----0-4-4-4-4----4-4-4-4----0-1-0----o||
|-5-5-5-5----5-5-5-5----0-4-4-4-4----4-4-4-4----0-1-0-----||
|
| PM--------------------------------------------|
| T T T S S. T T T S S. E T T T S S. T T T S S. E E E
|---------------------------------------------------------||
|--------------------------------------------------------o||
|---------------------------------------------------------||
|-5-5-5-5----5-5-5-5----0-4-4-4-4----4-4-4-4----0-5-4-----||
|-5-5-5-5----5-5-5-5----0-4-4-4-4----4-4-4-4----0-1-0----o||
|-5-5-5-5----5-5-5-5----0-4-4-4-4----4-4-4-4----0-1-0-----||


 Singing Part
 4/4
   PM---|                        PM-----|            PM--------|         PM
   E     E     H                 E  E    E     E     E    E     E     E  E  E
|-------------------------------------|---------------------------------------|
|-------------------------------------|---------------------------------------|
|-------------------------------------|---------------------------------------|
|--------------8----------------------|--------7----------------------5-----4-|
|--------5----------------------------|--4----------------------1-------------|
|--5-----------------------------5--4-|--------------4----1--------------0----|
|
|  PM---|                        PM-----|            PM--------|         PM
|  E     E     H                 E  E    E     E     E    E     E     E  E  E
|-------------------------------------|---------------------------------------|
|-------------------------------------|---------------------------------------|
|-------------------------------------|---------------------------------------|
|--------------8----------------------|--------7----------------------5-----4-|
|--------5----------------------------|--4----------------------1-------------|
|--5-----------------------------5--4-|--------------4----1--------------0----|
|
| Gtr IV
|  s  s  s  s  s  s  s  s  e  e  e  e    s  s  s  s  s  s s  s  s  s  e  e  e
|-------------------------------------|-------------------8-10-11-10-17-15-14-|
|-------------------------------------|---------------------------------------|
|-------------------12-14-15-11-14-11-|-14-15-14-11-11------------------------|
|-12-13-12-10-12-13-------------------|----------------13---------------------|
|-------------------------------------|---------------------------------------|
|-------------------------------------|---------------------------------------|


  PM|         PM----|    PM--|    PM
  E E H       E E    E E E E  E E E E
|-----------------|---------------------|
|-----------------|---------------------|
|-----------------|---------------------|
|-----8-----------|----7--------5---4---|
|---5-------------|--4--------1---------|
|-5-----------5-4-|------4-1------0-----|
|
| PM|         PM----|    PM--|    PM
| E E H       E E    E E E E  E E E E
|-----------------|---------------------|
|-----------------|---------------------|
|-----------------|---------------------|
|-----8-----------|----7--------5---4---|
|---5-------------|--4--------1---------|
|-5-----------5-4-|------4-1------0-----|
|
| e e e e e e e e    e e e e  e e e e
|-----6-------6---|-14-------10---8-----|
|-----------------|---------------------|
|-----------------|---------------------|
|-5---4---5---4---|--4--------4---------|
|---5---5---5---5-|----5-6-5----5-6-5---|
|-----------------|---------------------|


  PM|         PM----|    PM--|    PM    PM|         PM----|    PM--|    PM
  E E H       E E    E E E E  E E E E   E E H       E E    E E E E  E E E E
|-----------------|-------------------|-----------------|-------------------|
|-----------------|-------------------|-----------------|-------------------|
|-----------------|-------------------|-----------------|-------------------|
|-----8-----------|----7--------5---4-|-----8-----------|----7--------5---4-|
|---5-------------|--4--------1-------|---5-------------|--4--------1-------|
|-5-----------5-4-|------4-1------0---|-5-----------5-4-|------4-1------0---|
|
| PM|         PM----|    PM--|    PM    PM|         PM----|    PM--|    PM
| E E H       E E    E E E E  E E E E   E E H       E E    E E E E  E E E E
|-----------------|-------------------|-----------------|-------------------|
|-----------------|-------------------|-----------------|-------------------|
|-----------------|-------------------|-----------------|-------------------|
|-----8-----------|----7--------5---4-|-----8-----------|----7--------5---4-|
|---5-------------|--4--------1-------|---5-------------|--4--------1-------|
|-5-----------5-4-|------4-1------0---|-5-----------5-4-|------4-1------0---|
|
| e e e e e e e e    e e e e  e e e e   e e e e e e e e    e e e e  e e e e
|-----6-------6---|-14-------10---8---|-----6-------6---|-14-------10---8---|
|-----------------|-------------------|-----------------|-------------------|
|-----------------|-------------------|-----------------|-------------------|
|-5---4---5---4---|--4--------4-------|-5---4---5---4---|--4--------4-------|
|---5---5---5---5-|----5-6-5----5-6-5-|---5---5---5---5-|----5-6-5----5-6-5-|
|-----------------|-------------------|-----------------|-------------------|


   PM---------------------------------------------------------------------|        PM|
   S  S  S  S  S  S  S  S  S S  S S  S S  S S    S  S  S  S  S  S S  S  S  S  S S  S S  S S
|---------------------------------------------|---------------------------------------------|
|---------------------------------------------|---------------------------------------------|
|---------------------------------------------|---------------------------------------------|
|--------------8--8--------8-8----------------|--------7--7-------------------5-5-------4-4-|
|--------5--5--------5--5-------5-5-----------|--4--4-------------------1--1----------------|
|--5--5------------------------------5-5--4-4-|--------------4--4-1--1-------------0-0------|
|
|  PM---------------------------------------------------------------------|        PM|
|  S  S  S  S  S  S  S  S  S S  S S  S S  S S    S  S  S  S  S  S S  S  S  S  S S  S S  S S
|---------------------------------------------|---------------------------------------------|
|---------------------------------------------|---------------------------------------------|
|---------------------------------------------|---------------------------------------------|
|--------------8--8--------8-8----------------|--------7--7-------------------5-5-------4-4-|
|--------5--5--------5--5-------5-5-----------|--4--4-------------------1--1----------------|
|--5--5------------------------------5-5--4-4-|--------------4--4-1--1-------------0-0------|
|
|  s  s  s  s  s  s  s  s  e    e    e    e      s  s  s  s  s  s s  s  s  s  e    e    e
|---------------------------------------------|-------------------8-10-11-10-17---15---14---|
|---------------------------------------------|---------------------------------------------|
|-------------------12-14-15---11---14---11---|-14-15-14-11-11------------------------------|
|-12-13-12-10-12-13---------------------------|----------------13---------------------------|
|---------------------------------------------|---------------------------------------------|
|---------------------------------------------|---------------------------------------------|


  PM----------------------------------------------------|     PM|
  S S S S S S S S S S S S S S S S    S S S S S S S S  S S S S S S S S
|---------------------------------|--------------------------------------|
|---------------------------------|--------------------------------------|
|---------------------------------|--------------------------------------|
|---------8-8-----8-8-------------|------7-7--------------5-5-----4-4----|
|-----5-5-----5-5-----5-5---------|--4-4--------------1-1----------------|
|-5-5---------------------5-5-4-4-|----------4-4-1-1----------0-0--------|
|
| PM----------------------------------------------------|     PM|
| S S S S S S S S S S S S S S S S    S S S S S S S S  S S S S S S S S
|---------------------------------|--------------------------------------|
|---------------------------------|--------------------------------------|
|---------------------------------|--------------------------------------|
|---------8-8-----8-8-------------|------7-7--------------5-5-----4-4----|
|-----5-5-----5-5-----5-5---------|--4-4--------------1-1----------------|
|-5-5---------------------5-5-4-4-|----------4-4-1-1----------0-0--------|
|
| e   e   e   e   e   e   e   e      e   e   e   e    e   e   e   e
|---------6---------------6-------|-14---------------10-------8----------|
|---------------------------------|--------------------------------------|
|---------------------------------|--------------------------------------|
|-5-------4-------5-------4-------|--4----------------4------------------|
|-----5-------5-------5-------5---|------5---6---5--------5---6---5------|
|---------------------------------|--------------------------------------|


  PM----------------------------------------------------|     PM|
  S S S S S S S S S S S S S S S S    S S S S S S S S  S S S S S S S S
|---------------------------------|-----------------------------------|
|---------------------------------|-----------------------------------|
|---------------------------------|-----------------------------------|
|---------8-8-----8-8-------------|------7-7--------------5-5-----4-4-|
|-----5-5-----5-5-----5-5---------|--4-4--------------1-1-------------|
|-5-5---------------------5-5-4-4-|----------4-4-1-1----------0-0-----|
|
| PM----------------------------------------------------|     PM|
| S S S S S S S S S S S S S S S S    S S S S S S S S  S S S S S S S S
|---------------------------------|-----------------------------------|
|---------------------------------|-----------------------------------|
|---------------------------------|-----------------------3-3-----2-2-|
|---------8-8-----8-8-------------|------7-7--------------------------|
|-----5-5-----5-5-----5-5---------|--4-4--------------1-1-------------|
|-5-5---------------------5-5-4-4-|----------4-4-1-1----------0-0-----|
|
| e   e   e   e   e   e   e   e      e   e   e   e    e   e   e   e
|---------6---------------6-------|-14---------------10-------8-------|
|---------------------------------|-----------------------------------|
|---------------------------------|-----------------------------------|
|-5-------4-------5-------4-------|--4----------------4---------------|
|-----5-------5-------5-------5---|------5---6---5--------5---6---5---|
|---------------------------------|-----------------------------------|


  PM----------------------------------------------------|     PM|
  S S S S S S S S S S S S S S S S    S S S S S S S S  S S S S S S S S
|---------------------------------|--------------------------------------|
|---------------------------------|--------------------------------------|
|---------------------------------|--------------------------------------|
|---------8-8-----8-8-------------|------7-7--------------5-5-----4-4----|
|-----5-5-----5-5-----5-5---------|--4-4--------------1-1----------------|
|-5-5---------------------5-5-4-4-|----------4-4-1-1----------0-0--------|
|
| PM----------------------------------------------------|     PM|
| S S S S S S S S S S S S S S S S    S S S S S S S S  S S S S S S S S
|---------------------------------|--------------------------------------|
|---------------------------------|--------------------------------------|
|---------------------------------|-----------------------3-3-----2-2----|
|---------8-8-----8-8-------------|------7-7-----------------------------|
|-----5-5-----5-5-----5-5---------|--4-4--------------1-1----------------|
|-5-5---------------------5-5-4-4-|----------4-4-1-1----------0-0--------|
|
| e   e   e   e   e   e   e   e      e   e   e   e    e   e   e   e
|---------6---------------6-------|-14---------------10-------8----------|
|---------------------------------|--------------------------------------|
|---------------------------------|--------------------------------------|
|-5-------4-------5-------4-------|--4----------------4------------------|
|-----5-------5-------5-------5---|------5---6---5--------5---6---5------|
|---------------------------------|--------------------------------------|


 Intro Reprise II
    PM------|                    PM|
  S S S S S S S S Q    S S S S   S S Q.     S S S  S S S S  S
|------------------------------|------------------------------|
|------------------------------|------------------------------|
|------------------------------|-------------------------2-/5-|
|----------------------4-------|----------------4-/7----------|
|-3-----------3-6-5------5-6-3-|-----5tr6---0-3------3-6------|
|---4-1-0-1-4------------------|-4-1--------------------------|
|
| S H               E. S S E     H          S S S  S S S S  S
|------------------------------|------------------------------|
|------------------------------|------------------------------|
|------------------------------|-------------------------2-/5-|
|-5----------------------------|----------------4-/7----------|
|-3--------------------4-0-----|------------0-3------3-6------|
|----------------------4-0-----|------------------------------|


    PM------|                   PM|
  S S S S S S S S Q  S S  S S   S S Q.     S S S  S S S S  S
|-----------------------------|--------------------------------|
|-----------------------------|--------------------------------|
|-----------------------------|-------------------------2-/5---|
|--------------------4--------|----------------4-/7------------|
|-3-----------3-6-5----5--6-3-|-----5tr6---0-3------3-6--------|
|---4-1-0-1-4-----------------|-4-1----------------------------|
|
|   PM------|                   PM|
| S S S S S S S S Q  S S  S S   S S Q.     S S S  S S S S  S
|-----------------------------|--------------------------------|
|-----------------------------|--------------------------------|
|-----------------------------|--------------------------------|
|---------------5-4--8--------|-----4tr5-------4-/7-----4-/7---|
|-3-----------3--------9-10-6-|------------0-3------3-6--------|
|---4-1-0-1-4-----------------|-8-5----------------------------|


    PM------|                   PM|
  S S S S S S S S Q  S S  S S   S S Q.     S S S  S S S S  S
|-----------------------------|------------------------------|
|-----------------------------|------------------------------|
|-----------------------------|-------------------------2-/5-|
|--------------------4--------|----------------4-/7----------|
|-3-----------3-6-5----5--6-3-|-----5tr6---0-3------3-6------|
|---4-1-0-1-4-----------------|-4-1--------------------------|
|
|   PM------|                   PM|
| S S S S S S S S Q  S S  S S   S S Q.     S S S  S S S S  S
|-----------------------------|------------------------------|
|-----------------------------|------------------------------|
|-----------------------------|------------------------------|
|---------------5-4--8--------|-----4tr5-------4-/7-----4-/7-|
|-3-----------3--------9-10-6-|------------0-3------3-6------|
|---4-1-0-1-4-----------------|-8-5--------------------------|


    PM------|                   PM|
  S S S S S S S S Q  S S  S S   S S Q.      S S S  S S S S  S
|-----------------------------|---------------------------------|
|-----------------------------|---------------------------------|
|-----------------------------|--------------------------2-/5---|
|--------------------4--------|-----------------4-/7------------|
|-3-----------3-6-5----5--6-3-|-----5tr6----0-3------3-6--------|
|---4-1-0-1-4-----------------|-4-1-----------------------------|
|
|   PM------|                   PM|
| S S S S S S S S Q  S S  S S   S S Q.      S S S  S S S S  S
|-----------------------------|---------------------------------|
|-----------------------------|---------------------------------|
|-----------------------------|---------------------------------|
|---------------5-4--8--------|-----------------4-/7-----4-/7---|
|-3-----------3--------9-10-6-|-----9tr10---0-3------3-6--------|
|---4-1-0-1-4-----------------|-8-5-----------------------------|


   Prog Riff III
   4/4
                          PM----------
    S S S  S E S S S  S E T T T S S.
||-----------------------------------|
||o----------------------------------|
||-----------------2-/5--------------|
||------4-/7--------------0-0-0-0----|
||o-0-3--------3-6--------0-0-0-0----|
||------------------------0-0-0-0----|
|
|                         PM----------
|   S S S  S E S S S  S E T T T S S.
||-----------------------------------|
||o----------------------------------|
||-----------------------------------|
||------4-/7-------4-/7---0-0-0-0----|
||o-0-3--------3-6--------0-0-0-0----|
||------------------------0-0-0-0----|


 11/8
 ---------|                      PM-----------------|
  T T T S S. S S S  S S S S  S E T T T S S. T T T S S.   3x
|--------------------------------------------------------||
|-------------------------------------------------------o||
|-------------------------2-/5---------------------------||
|-0-0-0-0--------4-/7------------0-0-0-0----0-0-0-0------||
|-0-0-0-0----0-3------3-6--------0-0-0-0----0-0-0-0-----o||
|-0-0-0-0------------------------0-0-0-0----0-0-0-0------||
|
|---------|                      PM-----------------|
| T T T S S. S S S  S S S S  S E T T T S S. T T T S S.   3x
|--------------------------------------------------------||
|-------------------------------------------------------o||
|----------------2-/5-----5-/8---------------------------||
|-0-0-0-0------------------------0-0-0-0----0-0-0-0------||
|-0-0-0-0----3-6------6-9--------0-0-0-0----0-0-0-0-----o||
|-0-0-0-0------------------------0-0-0-0----0-0-0-0------||


 4/4
                        PM----------
  S S S  S E S S S  S E T T T S S.
|----------------------------------|
|----------------------------------|
|----------------2-/5--------------|
|-----4-/7--------------0-0-0-0----|
|-0-3--------3-6--------0-0-0-0----|
|-----------------------0-0-0-0----|
|
|                       PM----------
| S S S  S E S S S  S E T T T S S.
|----------------------------------|
|----------------------------------|
|----------------------------------|
|-----4-/7-------4-/7---0-0-0-0----|
|-0-3--------3-6--------0-0-0-0----|
|-----------------------0-0-0-0----|


 11/8
 ---------|                      PM---------------|
  T T T S S. S S S  S S S S  S E T T T S S. T T T E +T
|---------------------------------------------------------|
|---------------------------------------------------------|
|-------------------------2-/5----------------------------|
|-0-0-0-0--------4-/7------------0-0-0-0----0-0-0-0-(0)---|
|-0-0-0-0----0-3------3-6--------0-0-0-0----0-0-0-0-(0)---|
|-0-0-0-0------------------------0-0-0-0----0-0-0-0-(0)---|
|
|---------|                      PM---------------|
| T T T S S. S S S  S S S S  S E T T T S S. T T T E  T
|---------------------------------------------------------|
|---------------------------------------------------------|
|----------------2-/5-----5-/8----------------------------|
|-0-0-0-0------------------------0-0-0-0----0-0-0-0-(0)---|
|-0-0-0-0----3-6------6-9--------0-0-0-0----0-0-0-0--0----|
|-0-0-0-0------------------------0-0-0-0----0-0-0-0--0----|


 Breakdown II
  Q=100
 6/4
  PM  PM  PM--|                         PM|
                 |---------3---------|
  E E E E E E E  T   T   T   T   T   T  E E E  E
|---------------<5>------------------------------|
|-------------------<5>--------------------------|
|-----------------------<5>----------------------|
|---3---3-------------------<5>-------------3-/6-|
|-2-1-2-1-2-0-2-----------------<5>-----0-2-1-/4-|
|-2---2---2-0-2---------------------<5>-0-2------|
|
|                                       PM|
| W                                     E E Q
|------------------------------------------------|
|------------------------------------------------|
|------------------------------------------------|
|------------------------------------------------|
|---------------------------------------0-2------|
|---------------------------------------0-2------|


 7/4
  PM|   PM  PM--|
  E E E E E E E E  E    E E E E  E
|-----------------------------------|
|-----------------------------------|
|-----------------[7]b8-------------|
|-----3---3-------------------3-/6--|
|-0-2-1-2-1-2-0-2-------2-0-2-1-/4--|
|-0-2---2---2-0-2-------2-0-2-------|
|
| PM|   PM  PM--|       PM|
| E E E E E E E E  E    E E E E  E
|-----------------------------------|
|-----------------------------------|
|-----------------------------------|
|-----3---3-------[7]b8-------3-/6--|
|-0-2-1-2-1-2-0-2-------2-0-2-1-/4--|
|-0-2---2---2-0-2-------2-0-2-------|


 Best Part Reprise
  Q=140
 4/4
   TP TP  TP  TP TP   TP   TP      TP
   Q  Q   Q   E  E    H    H       H     S  S  E  E  E
|------------------|------------|----------------------|
|------------------|------------|----------------------|
|------------------|------------|----------------------|
|------------------|------------|--------4--5--4-----4-|
|--5------5---3--5-|--6---------|-----------------6----|
|-----0------------|-------1----|-/4-------------------|
|
|  TP TP  TP  TP TP   TP   TP      TP
|  Q  Q   Q   E  E    H    H       H     S  S  E  E  E
|------------------|------------|----------------------|
|------------------|------------|----------------------|
|------------------|------------|----------------------|
|------------------|------------|-------11-12-11----11-|
|-12-----12--10-12-|-13---------|----------------13----|
|-----0------------|-------1----|-/4-------------------|


   TP   TP  TP TP   TP   TP      TP
   H    Q   E  E    H    H       H     S  S  E  E  E
|----------------|------------|-----------------------|
|----------------|------------|-----------------------|
|----------------|------------|-----------------------|
|----------------|------------|--------4--5--4-----4--|
|--5--------3--5-|--6---------|-----------------6-----|
|-------0--------|-------1----|-/4--------------------|
|
|  TP   TP  TP TP   TP   TP      TP
|  H    Q   E  E    H    H       H     S  S  E  E  E
|----------------|------------|-----------------------|
|----------------|------------|-----------------------|
|----------------|------------|-----------------------|
|----------------|------------|-------11-12-11----11--|
|-12-------10-12-|-13---------|----------------13-----|
|-------0--------|-------1----|-/4--------------------|


   Breakdown III
   6/4
    PM--------------------------------------------|
    T T T S S. T T T S S. E T T T S S. T T T S S. E E E
||------------------------------------------------------|
||o-----------------------------------------------------|
||------------------------------------------------------|
||--5-5-5-5----5-5-5-5----0-4-4-4-4----4-4-4-4----0-5-4-|
||o-5-5-5-5----5-5-5-5----0-4-4-4-4----4-4-4-4----0-1-0-|
||--5-5-5-5----5-5-5-5----0-4-4-4-4----4-4-4-4----0-1-0-|
|
|   PM--------------------------------------------|
|   T T T S S. T T T S S. E T T T S S. T T T S S. E E E
||------------------------------------------------------|
||o-----------------------------------------------------|
||------------------------------------------------------|
||--5-5-5-5----5-5-5-5----0-4-4-4-4----4-4-4-4----0-5-4-|
||o-5-5-5-5----5-5-5-5----0-4-4-4-4----4-4-4-4----0-1-0-|
||--5-5-5-5----5-5-5-5----0-4-4-4-4----4-4-4-4----0-1-0-|


  PM--------------------------------------------|
  T T T S S. T T T S S. E T T T S S. T T T S S. E E E
|---------------------------------------------------------||
|--------------------------------------------------------o||
|---------------------------------------------------------||
|-5-5-5-5----5-5-5-5----0-4-4-4-4----4-4-4-4----0-5-4-----||
|-5-5-5-5----5-5-5-5----0-4-4-4-4----4-4-4-4----0-1-0----o||
|-5-5-5-5----5-5-5-5----0-4-4-4-4----4-4-4-4----0-1-0-----||
|
| PM--------------------------------------------|
| T T T S S. T T T S S. E T T T S S. T T T S S. E E E
|---------------------------------------------------------||
|--------------------------------------------------------o||
|---------------------------------------------------------||
|-5-5-5-5----5-5-5-5----0-4-4-4-4----4-4-4-4----0-5-4-----||
|-5-5-5-5----5-5-5-5----0-4-4-4-4----4-4-4-4----0-1-0----o||
|-5-5-5-5----5-5-5-5----0-4-4-4-4----4-4-4-4----0-1-0-----||


  Q=100
  PM--------------------------------------------|
  T T T S S. T T T S S. E T T T S S. T T T S S. E E E
|-----------------------------------------------------|
|-----------------------------------------------------|
|-----------------------------------------------------|
|-5-5-5-5----5-5-5-5----0-4-4-4-4----4-4-4-4----0-5-4-|
|-5-5-5-5----5-5-5-5----0-4-4-4-4----4-4-4-4----0-1-0-|
|-5-5-5-5----5-5-5-5----0-4-4-4-4----4-4-4-4----0-1-0-|
|
| PM--------------------------------------------|
| T T T S S. T T T S S. E T T T S S. T T T S S. E E E
|-----------------------------------------------------|
|-----------------------------------------------------|
|-----------------------------------------------------|
|-5-5-5-5----5-5-5-5----0-4-4-4-4----4-4-4-4----0-5-4-|
|-5-5-5-5----5-5-5-5----0-4-4-4-4----4-4-4-4----0-1-0-|
|-5-5-5-5----5-5-5-5----0-4-4-4-4----4-4-4-4----0-1-0-|


  Q=140
  PM--------------------------------------------|
  T T T S S. T T T S S. E T T T S S. T T T S S. E E E
|-----------------------------------------------------|
|-----------------------------------------------------|
|-----------------------------------------------------|
|-5-5-5-5----5-5-5-5----0-4-4-4-4----4-4-4-4----0-5-4-|
|-5-5-5-5----5-5-5-5----0-4-4-4-4----4-4-4-4----0-1-0-|
|-5-5-5-5----5-5-5-5----0-4-4-4-4----4-4-4-4----0-1-0-|
|
| PM--------------------------------------------|
| T T T S S. T T T S S. E T T T S S. T T T S S. E E E
|-----------------------------------------------------|
|-----------------------------------------------------|
|-----------------------------------------------------|
|-5-5-5-5----5-5-5-5----0-4-4-4-4----4-4-4-4----0-5-4-|
|-5-5-5-5----5-5-5-5----0-4-4-4-4----4-4-4-4----0-1-0-|
|-5-5-5-5----5-5-5-5----0-4-4-4-4----4-4-4-4----0-1-0-|


  PM--------------------------------------------|
  T T T S S. T T T S S. E T T T S S. T T T S S. E E E
|------------------------------------------------------|
|------------------------------------------------------|
|------------------------------------------------------|
|-5-5-5-5----5-5-5-5----0-4-4-4-4----4-4-4-4----0-5-4--|
|-5-5-5-5----5-5-5-5----0-4-4-4-4----4-4-4-4----0-1-0--|
|-5-5-5-5----5-5-5-5----0-4-4-4-4----4-4-4-4----0-1-0--|
|
| PM--------------------------------------------|
| T T T S S. T T T S S. E T T T S S. T T T S S. E E E
|------------------------------------------------------|
|------------------------------------------------------|
|------------------------------------------------------|
|-5-5-5-5----5-5-5-5----0-4-4-4-4----4-4-4-4----0-5-4--|
|-5-5-5-5----5-5-5-5----0-4-4-4-4----4-4-4-4----0-1-0--|
|-5-5-5-5----5-5-5-5----0-4-4-4-4----4-4-4-4----0-1-0--|


 Sweeps Breakdown
      Q=140
                                           PM--------------------|
  |----------3-----------|
  S    S   S   S    S S  E.   Q            T T T S S. T T T S S. E E E
|---------------------6-10---------------------------------------------|
|-------------------8--------------------------------------------------|
|--------------7-------------------------------------------------------|
|----------8-------------------------------4-4-4-4----4-4-4-4----0-5-4-|
|-9---10-----------------------------------4-4-4-4----4-4-4-4----0-1-0-|
|------------------------------------------4-4-4-4----4-4-4-4----0-1-0-|
|
| PM---------|           PM                PM--------------------|
|                             |----3-----|
| T T    T   S   S.      S  S S  S S S S S T T T S S. T T T S S. E E E
|-----------------------------6-10-6-----------------------------------|
|------------------------------------8---------------------------------|
|--------------------------------------7-------------------------------|
|-5-5----5---5-----------5---------------8-4-4-4-4----4-4-4-4----0-5-4-|
|-5-5----5---5-----------5-----------------4-4-4-4----4-4-4-4----0-1-0-|
|-5-5----5---5-----------5-----------------4-4-4-4----4-4-4-4----0-1-0-|


                                           PM--------------------|
   |----------3----------|
   S   S   S   S    S  S E.    Q           T T T S S. T T T S S. E E E
|-10---6------------------------------------------------------------------|
|----------8--------------------------------------------------------------|
|--------------7----------------------------------------------------------|
|-------------------8----------------------4-4-4-4----4-4-4-4----0-5-4----|
|---------------------10-9-----------------4-4-4-4----4-4-4-4----0-1-0----|
|------------------------------------------4-4-4-4----4-4-4-4----0-1-0----|
|
|  PM--------|           PM                PM--------------------|
|                              |---3----|
|  T T   T   S   S.      S  S  S  S  S  E. T T T S S. T T T S S. E E E
|--------------------------------------15---------------------------------|
|-----------------------------------15------------------------------------|
|--------------------------------15---------------------------------------|
|--5-5---5---5-----------5----17-----------4-4-4-4----4-4-4-4----0-5-4----|
|--5-5---5---5-----------5-----------------4-4-4-4----4-4-4-4----0-1-0----|
|--5-5---5---5-----------5-----------------4-4-4-4----4-4-4-4----0-1-0----|


                                 PM--------------------|
  |----------3-----------|
  S    S   S   S    S S  E.   Q  T T T S S. T T T S S. E E E
|---------------------6-10-----------------------------------|
|-------------------8----------------------------------------|
|--------------7---------------------------------------------|
|----------8---------------------4-4-4-4----4-4-4-4----0-5-4-|
|-9---10-------------------------4-4-4-4----4-4-4-4----0-1-0-|
|--------------------------------4-4-4-4----4-4-4-4----0-1-0-|
|
| PM---------|           PM      PM--------------------|
| T T    T   S   S.      S  S Q  T T T S S. T T T S S. E E E
|------------------------------------------------------------|
|------------------------------------------------------------|
|------------------------------------------------------------|
|-5-5----5---5-----------5-------4-4-4-4----4-4-4-4----0-5-4-|
|-5-5----5---5-----------5-------4-4-4-4----4-4-4-4----0-1-0-|
|-5-5----5---5-----------5-------4-4-4-4----4-4-4-4----0-1-0-|


                                           PM--------------------|
   |----------3----------|
   S   S   S   S    S  S E.    Q           T T T S S. T T T S S. E E E
|-10---6-----------------------------------------------------------------|
|----------8-------------------------------------------------------------|
|--------------7---------------------------------------------------------|
|-------------------8----------------------4-4-4-4----4-4-4-4----0-5-4---|
|---------------------10-9-----------------4-4-4-4----4-4-4-4----0-1-0---|
|------------------------------------------4-4-4-4----4-4-4-4----0-1-0---|
|
|  PM--------|           PM                PM--------------------|
|                              |---3----|
|  T T   T   S   S.      S  S  S  S  S  E. T T T S S. T T T S S. E E E
|--------------------------------------15--------------------------------|
|-----------------------------------15-----------------------------------|
|--------------------------------15--------------------------------------|
|--5-5---5---5-----------5----17-----------4-4-4-4----4-4-4-4----0-5-4---|
|--5-5---5---5-----------5-----------------4-4-4-4----4-4-4-4----0-1-0---|
|--5-5---5---5-----------5-----------------4-4-4-4----4-4-4-4----0-1-0---|


   Outro
                                             PM--------------------|
    |----------3-----------|
    S    S   S   S    S S  E.   Q            T T T S S. T T T S S. E E E
||----------------------6-10---------------------------------------------|
||o-------------------8--------------------------------------------------|
||---------------7-------------------------------------------------------|
||-----------8-------------------------------4-4-4-4----4-4-4-4----0-5-4-|
||o-9---10-----------------------------------4-4-4-4----4-4-4-4----0-1-0-|
||-------------------------------------------4-4-4-4----4-4-4-4----0-1-0-|
|
|   PM---------|           PM                PM--------------------|
|                               |----3-----|
|   T T    T   S   S.      S  S S  S S S S S T T T S S. T T T S S. E E E
||------------------------------6-10-6-----------------------------------|
||o------------------------------------8---------------------------------|
||---------------------------------------7-------------------------------|
||--5-5----5---5-----------5---------------8-4-4-4-4----4-4-4-4----0-5-4-|
||o-5-5----5---5-----------5-----------------4-4-4-4----4-4-4-4----0-1-0-|
||--5-5----5---5-----------5-----------------4-4-4-4----4-4-4-4----0-1-0-|


                                           PM--------------------|
   |----------3----------|
   S   S   S   S    S  S E.    Q           T T T S S. T T T S S. E E E     5x
|-10---6-------------------------------------------------------------------||
|----------8--------------------------------------------------------------o||
|--------------7-----------------------------------------------------------||
|-------------------8----------------------4-4-4-4----4-4-4-4----0-5-4-----||
|---------------------10-9-----------------4-4-4-4----4-4-4-4----0-1-0----o||
|------------------------------------------4-4-4-4----4-4-4-4----0-1-0-----||
|
|  PM--------|           PM                PM--------------------|
|                              |---3----|
|  T T   T   S   S.      S  S  S  S  S  E. T T T S S. T T T S S. E E E     5x
|--------------------------------------15----------------------------------||
|-----------------------------------15------------------------------------o||
|--------------------------------15----------------------------------------||
|--5-5---5---5-----------5----17-----------4-4-4-4----4-4-4-4----0-5-4-----||
|--5-5---5---5-----------5-----------------4-4-4-4----4-4-4-4----0-1-0----o||
|--5-5---5---5-----------5-----------------4-4-4-4----4-4-4-4----0-1-0-----||



Duration Legend
---------------
W - whole; H - half; Q - quarter; E - 8th; S - 16th; T - 32nd; X - 64th; a - acciaccatura
+ - note tied to previous; . - note dotted; .. - note double dotted
Uncapitalized letters represent notes that are staccato (1/2 duration)
Irregular groupings are notated above the duration line
Duration letters will always appear directly above the note/fret number it represents the
duration for.  Duration letters with no fret number below them represent rests.  Multi-
bar rests are notated in the form Wxn, where n is the number of bars to rest for.  Low
melody durations appear below the staff

Tablature Legend
----------------
 h   - hammer-on
 p   - pull-off
 b   - bend
 pb  - pre-bend
 r   - bend release (if no number after the r, then release immediately)
 /\  - slide into or out of (from/to "nowhere")
 s   - legato slide
 S   - shift slide
 - natural harmonic
[n]  - artificial harmonic
n(n) - tapped harmonic
 ~   - vibrato
 tr  - trill
 T   - tap
 TP  - trem. picking
 PM  - palm muting
\n/  - tremolo bar dip; n = amount to dip
 \n  - tremolo bar down
 n/  - tremolo bar up
/n\  - tremolo bar inverted dip
 =   - hold bend; also acts as connecting device for hammers/pulls
 <> - volume swell (louder/softer)
 x   - on rhythm slash represents muted slash
 o   - on rhythm slash represents single note slash

Misc Legend
-----------
 |  - bar
||  - double bar
||o - repeat start
o|| - repeat end
*|  - double bar (ending)
 :  - bar (freetime)
 $  - Segno
 &  - Coda
Tempo markers -  = BPM(8/16=s8/s16), where s8 = swing 8ths, s16 = swing 16ths


** Generated using Power Tab Editor by Brad Larsen: The Official Power Tab Web Site
comments
print report bad tab
8 comments total. Showing first comments.
0 reply
guitarwannabe16 wrote on June 28 2007, 02:50 pm

Thanks bro for retabbing this out for me!! Good Job!!

0 reply
bass_emagdnim wrote on July 23 2007, 05:20 pm

You're a madman.

How long did it take you to do this?

Brilliant job, by the way!

0 reply
daynan wrote on September 15 2007, 05:11 pm

this isnt his tab he got it from tabit.net

I want to post or [tab]
guest
You may want to rate the tab now too:
select rating
Please do not post tabs as comments. Select "correction" instead!