Oops, an error
Loading. Please wait.

Planetary Duality Hideous Revelation Tab

ver1
ver1

Whole song

Interactive

More versions @911Tabs.com
14,667 views 18 this week
1 commentread comment
1 2 3 4 5
excellent!
x 2
Autoscroll
+/-
esc
set tempo
stop
Contributor
Tabbers playing skills
intermediate
Hey! There's an official Ultimate Guitar app which is ideal
for learning songs when you're away from computer. Get the app
WARNING: You are trying to view
                                    content from Ultimate-Guitar.com
                                    in an unauthorized application,
                                    which is prohibited.

                                    Please use an official Ultimate
                                    Guitar Tabs application for iPhone,
                                    iPad or Android to access legitimate
                                    chords, guitar, bass, and drum tabs
                                    from Ultimate-Guitar.com database.

                                    Type "ultimate guitar tabs" in Apple
                                    App Store's or Android Market's
                                    search to find the application.
Planetary Duality I (Hideous Revelation)
The Faceless
Planetary Duality
C G C F A D
1st line- LEAD
2nd line- RHYTHEM
3rd line- SOLOS

again NOT A GP COPY 

RATE MY TAB  
                                                     
D  :-------------------------|-------------------------|
A  :-------------------------|-------------------------|
F  :-------------------------|-------------------------|
C  :-------------------------|-------------------------|
G  :-------------------------|-------------------------|
C  :0-0-0-0-0-0*-0-0-0*0-0-0*|0-0-0*0-0-0*0-0-0-0*0-0-0|

                                                       
D  :-------------------------|-------------------------|
A  :-------------------------|-------------------------|
F  :-------------------------|-------------------------|
C  :-------------------------|-------------------------|
G  :5-5-6-6-5-5*-------------|-------------------------|
C  :-------------0-0-0*0-0-0*|0-0-0*0-0-0*0-0-0-0*0-0-0|

                                                       
============================================================================

                                                                        
D  :-------------------------|-------------------------|----------------|
A  :-------------------------|-------------------------|----------------|
F  :-------------------------|-------------------------|----------------|
C  :-------------------------|-------------------------|----------------|
G  :-------------------------|-------------------------|----5-----5-----|
C  :0-0-0-0-0-0-0-0*0-0-0*---|0-0-0-0-0-0*-0-0-0*0-0-0*|--------0-----4-|

                                                                        
D  :-------------------------|-------------------------|----------------|
A  :-------------------------|-------------------------|----------------|
F  :-------------------------|-------------------------|----------------|
C  :-------------------------|-------------------------|----------------|
G  :----5-5-6-6-5-5----------|5-5-6-6-5-5*-------------|----5-----5-----|
C  :0-0------------*0-0-0*---|-------------0-0-0*0-0-0*|--------0-----4-|

============================================================================

                                                                          
D  :-----------------|-----------------|----------------|-----------------|
A  :-----------------|-----------------|----------------|-----------------|
F  :-----------------|-----------------|----------------|-----------------|
C  :----1------------|-----------------|----------------|------1----------|
G  :--5---5----5-----|--5-6-5------5---|------5-----5---|----5---5----5---|
C  :--------1----1---|----------4----1-|--0-------0-----|4---------1----1-|

                                                                          
D  :-----------------|-----------------|----------------|-----------------|
A  :-----------------|-----------------|----------------|-----------------|
F  :-----------------|-----------------|----------------|-----------------|
C  :----1------------|-----------------|----------------|------1----------|
G  :--5---5----5-----|--5-6-5------5---|------5-----5---|----5---5----5---|
C  :--------1----1---|----------4----1-|--0-------0-----|4---------1----1-|

============================================================================

                                                          
D  :----------------|--------------------|----------------|
A  :----------------|--------------------|----------------|
F  :----------------|--------------------|----------------|
C  :------1---------|--------4--------4--|------4-5-4-----|
G  :----5---5------5|--------------------|---------------5|
C  :------------4---|1---0---------0-----|--4---------1---|

                                                          
D  :----------------|--------------------|----------------|
A  :----------------|--------------------|----------------|
F  :----------------|--------------------|----------------|
C  :------1---------|--------------------|------0-1-0-----|
G  :----5---5------5|--------5--------5--|---------------5|
C  :------------4---|1---0---------0-----|--4---------1---|

                               8                          
D  :----------------|--------6-(-)--~-6-5|--5-------------|
A  :----------------|--------------------|8---7-----------|
F  :----------------|--------------------|----------------|
C  :----------------|--------------------|----------------|
G  :----------------|--------------------|----------------|
C  :----------------|--------------------|----------------|

============================================================================

                                                                 
D  :-------------------------------------|-----------------------|
A  :-------------------------------------|-----------------------|
F  :-------------------------------------|------------2-----2----|
C  :---------------4-5-4-----------------|-----------------------|
G  :---------------------------5---------|-----------------------|
C  :1-----------------------4-----1------|--------0-------0------|

                                                                 
D  :-------------------------------------|-----------------------|
A  :-------------------------------------|-----------------------|
F  :-------------------------------------|-----------------------|
C  :---------------0-1-0-----------------|-----------------------|
G  :---------------------------5---------|------------5-----5----|
C  :1-----------------------4-----1------|--------0-------0------|

                                                                 
D  :-------------------------------------|--------------------5--|
A  :-/-/-/-(15)-15-------13------\-\-\-\-|\-\-\-\-*---7---8------|
F  :-------------------------------------|-----------------------|
C  :-------------------------------------|-----------------------|
G  :-------------------------------------|-----------------------|
C  :-------------------------------------|-----------------------|

============================================================================

                                                    
D  :---------------------|--------------------------|
A  :---------------------|--------------------------|
F  :-----2---3--2--------|----2---3-2---------------|
C  :---------------------|--------------------------|
G  :-----------------5---|------------------------5-|
C  :4-------------1----1-|---------------4----------|

                                                    
D  :---------------------|--------------------------|
A  :---------------------|--------------------------|
F  :---------------------|--------------------------|
C  :-----0---1--0--------|----0---1-0---------------|
G  :-----------------5---|------------------------5-|
C  :4-------------1----1-|---------------4----------|

   H ALF                 5/4 H A LF                 
D  :5b-------------------|--------------------------|
A  :---------------------|--------------------------|
F  :------r-(8)-8--------|----7b-r------\--\--\--\--|
C  :---------------------|--------------------------|
G  :---------------------|--------------------------|
C  :---------------------|--------------------------|

============================================================================

                                                              
D  :------------------------|----------------|----------------|
A  :------------------------|----------------|----------------|
F  :------------------------|----------------|----------------|
C  :------------------------|----------------|----------------|
G  :------------------------|----------------|----------------|
C  :-1----------*-----------|----------------|----------------|

                                                              
D  :------------------------|----------------|----------------|
A  :------------------------|----------------|----------------|
F  :------------------------|----------------|----------------|
C  :------------------------|----------------|----------------|
G  :------------------------|----------------|----------------|
C  :-1----------*-----------|----------------|----------------|

               4/4                                            
D  :------------------------|----------------|----------------|
A  :------------------------|----------------|----------------|
F  :\--\--\--\--*-----------|----------------|----------------|
C  :------------------------|----------------|----------------|
G  :------------------------|----------------|----------------|
C  :------------------------|----------------|----------------|

============================================================================

                                                                  
D  :-------------------------|-------------------|----------------|
A  :-------------------------|-------------------|----------------|
F  :-------------------------|-------------------|----------------|
C  :--------------4-4-4-4----|4-4-4-4*-----------|----------------|
G  :-------------------------|-------------------|----------------|
C  :------0-0-0-0---------0-0|-------------------|----------------|

                                                                  
D  :-------------------------|-------------------|----------------|
A  :-------------------------|-------------------|----------------|
F  :-------------------------|-------------------|----------------|
C  :-------------------------|-------------------|----------------|
G  :--------------5-5-5-5----|5-5-5-5*-----------|----------------|
C  :------0-0-0-0---------0-0|-------------------|----------------|

============================================================================

                                                            
D  :------------------------|-------------------------------|
A  :------------------------|-------------------------------|
F  :------------------------|-------------------------------|
C  :------------------------|-------------------------------|
G  :---5-------------5-5-5-5|----5-5-5-5---------5-5-6-6-5-5|
C  :4----1---0-0-0-0--------|0-0---------4-4-4-4------------|

                                                            
D  :------------------------|-------------------------------|
A  :------------------------|-------------------------------|
F  :------------------------|-------------------------------|
C  :------------------------|-------------------------------|
G  :---5-------------5-5-5-5|----5-5-5-5---------5-5-6-6-5-5|
C  :4----1---0-0-0-0--------|0-0---------4-4-4-4------------|

============================================================================

                                                                           
D  :---------------------------------------|-------------------------------|
A  :---------------------------------------|-------------------------------|
F  :---------------------------------------|-------------------------------|
C  :---------------------------------------|--------------------4-4-4-4----|
G  :------5-------------5-5-6-6-5-5-5-5----|--5----------------------------|
C  :1-1-1---1-1-1-1-1-1-----------------4-4|4---1-1-1-1-0-0-0-0---------0-0|

                                                                           
D  :---------------------------------------|-------------------------------|
A  :---------------------------------------|-------------------------------|
F  :---------------------------------------|-------------------------------|
C  :---------------------------------------|-------------------------------|
G  :------5-------------5-5-6-6-5-5-5-5----|--5-----------------5-5-5-5----|
C  :1-1-1---1-1-1-1-1-1-----------------4-4|4---1-1-1-1-0-0-0-0---------0-0|

============================================================================

                                                                   
D  :-------------------------------|-------------------------------|
A  :-------------------------------|-------------------------------|
F  :-------------------------------|-------------------------------|
C  :4-4-4-4---------4-4-5-5-4-4----|----------------4-4-5-5-4-4-4-4|
G  :-------------------------------|--5----------------------------|
C  :--------4-4-4-4-------------1-1|1---1-1-1-1-1-1----------------|

                                                                   
D  :-------------------------------|-------------------------------|
A  :-------------------------------|-------------------------------|
F  :-------------------------------|-------------------------------|
C  :-------------------------------|-------------------------------|
G  :5-5-5-5---------5-5-6-6-5-5----|--5-------------5-5-6-6-5-5-5-5|
C  :--------4-4-4-4-------------1-1|1---1-1-1-1-1-1----------------|

============================================================================

                                                                   
D  :------------------------|----------------|---------------------|
A  :------------------------|----------------|---------------------|
F  :------------------------|----------------|---------------------|
C  :------------------------|----------0-1-0-|-------------1-------|
G  :--------------------5---|--5-------------|---5-------5---5-----|
C  :4-4-4-4-1-1-1-1-0-------|0-----4---------|1----1-------------4-|

                                                                   
D  :------------------------|----------------|---------------------|
A  :------------------------|----------------|---------------------|
F  :------------------------|----------------|---------------------|
C  :------------------------|----------0-1-0-|-------------1-------|
G  :--------------------5---|--5-------------|---5-------5---5-----|
C  :4-4-4-4-1-1-1-1-0-------|0-----4---------|1----1-------------4-|

============================================================================

                                                                          
D  :-----------------|----------------|-----------------|-----------------|
A  :-----------------|----------------|-----------------|-----------------|
F  :-----------------|----------------|-----------------|-----------------|
C  :-----------------|----------1-----|-----------1-----|-------------4---|
G  :-5---------5-----|5-------5---5---|-5-------5---5---|---5-------------|
C  :---1---0-------0-|----4---------1-|---1-------------|4----1---0-------|

                                                                          
D  :-----------------|----------------|-----------------|-----------------|
A  :-----------------|----------------|-----------------|-----------------|
F  :-----------------|----------------|-----------------|-----------------|
C  :-----------------|----------1-----|-----------1-----|-----------------|
G  :-5---------5-----|5-------5---5---|-5-------5---5---|---5---------5---|
C  :---1---0-------0-|----4---------1-|---1-------------|4----1---0-------|

============================================================================

                                                            
D  :----------------|---------------------|-----------------|
A  :----------------|---------------------|-----------------|
F  :----------------|---------------------|-----------2-----|
C  :--4-------4-5-4-|-----------4-5-4-----|-----------------|
G  :----------------|---5-----------------|-5---------------|
C  :0-----4---------|1----1-------------4-|---1---0-------0-|

                                                            
D  :----------------|---------------------|-----------------|
A  :----------------|---------------------|-----------------|
F  :----------------|---------------------|-----------------|
C  :----------------|---------------------|-----------------|
G  :--5-------5-6-5-|---5-------5-6-5-----|-5---------5-----|
C  :0-----4---------|1----1-------------4-|---1---0-------0-|

============================================================================

       continues in to  Pt II                           
D  :----------------|-----------------|------*----------|
A  :----------------|-----------------|------*----------|
F  :2-------2-3-2---|---------2-3-2---|------*----------|
C  :----------------|-----------------|------*----------|
G  :----------------|-5---------------|---5--*----------|
C  :----4---------1-|---1-------------|4----1*----------|

                                                        
D  :----------------|-----------------|------*----------|
A  :----------------|-----------------|------*----------|
F  :----------------|-----------------|------*----------|
C  :--------0-1-0---|---------0-1-0---|------*----------|
G  :5---------------|-5---------------|---5--*----------|
C  :----4---------1-|---1-------------|4----1*----------|

comments
We did not receive enough feedback on this tab! Please rate:
print report bad tab
1 2 3 4 5
1 comment total.
0 reply
Breebree2314 wrote on December 22 2008, 06:08 pm

Finally thanks for the great TAB man.

I want to post or [tab]
guest
You may want to rate the tab now too:
select rating
Please do not post tabs as comments. Select "correction" instead!