Oops, an error
Loading. Please wait.

Sons Of Belial Tab

12,850 views 9 this week
no commentswrite comment
1 2 3 4 5
excellent!
x 4
Autoscroll
+/-
esc
set tempo
stop
Contributor
Tabbers playing skills
intermediate
WARNING: You are trying to view
                                    content from Ultimate-Guitar.com
                                    in an unauthorized application,
                                    which is prohibited.

                                    Please use an official Ultimate
                                    Guitar Tabs application for iPhone,
                                    iPad or Android to access legitimate
                                    chords, guitar, bass, and drum tabs
                                    from Ultimate-Guitar.com database.

                                    Type "ultimate guitar tabs" in Apple
                                    App Store's or Android Market's
                                    search to find the application.
The Faceless
Sons of Belial
Planetary Duality
C G C F A D

PM me if you want Bass--------------***RATE MY TAB***------------------------

1st line- lead guitar
2nd line- rhythem guitar
3rd line- solo/backing riffs

| *  stop string
| /  slide up
| \  slide down
| h  hammer-on
| p  pull-off
| ~  vibrato
| x  Mute note

D  :----------------|----------------|----------------|
A  :----2-----------|----------------|----2-----------|
F  :------0---------|----------------|------0---------|
C  :--------4-------|----------------|--------4-------|
G  :----------------|----------------|----------------|
C  :4---------------|----------------|4---------------|

D  :----------------|----------------|----------------|
A  :----2-----------|----------------|----2-----------|
F  :------0---------|----------------|------0---------|
C  :--------4-------|----------------|--------4-------|
G  :----------------|----------------|----------------|
C  :4---------------|----------------|4---------------|

============================================================================

D  :-------------------|----------------|----------------|----------------|
A  :--------2-/3-------|*---2-----------|----------------|----2-----------|
F  :---------------0---|------0---------|----------------|------0---------|
C  :-------------4-----|--------4-------|----------------|--------4-------|
G  :-------------------|----------------|----------------|----------------|
C  :-------------------|4---------------|----------------|4---------------|

D  :-------------------|----------------|----------------|----------------|
A  :--------2-/3-------|*---2-----------|----------------|----2-----------|
F  :---------------0---|------0---------|----------------|------0---------|
C  :-------------4-----|--------4-------|----------------|--------4-------|
G  :-------------------|----------------|----------------|----------------|
C  :-------------------|4---------------|----------------|4---------------|

============================================================================

D  :----------------|
A  :--------3-------|
F  :------------0---|
C  :----------4-----|
G  :----------------|
C  :----------------|

D  :----------------|
A  :--------3-------|
F  :------------0---|
C  :----------4-----|
G  :----------------|
C  :----------------|

============================================================================

D  :---------------------|----------------|--------------------|
A  :---------------------|----------------|--------------------|
F  :(0)------------------|----------------|--------------------|
C  :-4-------------------|5---------------|--------------------|
G  :-4-------------------|4---*-----------|------------4---4---|
C  :-4------------4-4-4-4|4---*-----------|----4-4-4-4-4---4---|

D  :---------------------|----------------|--------------------|
A  :---------------------|----------------|--------------------|
F  :(0)------------------|----------------|--------------------|
C  :-4-------------------|5---------------|--------------------|
G  :-4-------------------|4---*-----------|------------4---4---|
C  :-4------------4-4-4-4|4---*-----------|----4-4-4-4-4---4---|

============================================================================

D  :----------------|---------------------|----------------|
A  :----------------|---------------------|----------------|
F  :----------------|(0)------------------|----------------|
C  :--------5-------|-4-------------------|5---------------|
G  :4---4---2-------|-4-------------------|4---*-----------|
C  :4---4---2-------|-4------------4-4-4-4|4---*-----------|

D  :----------------|---------------------|----------------|
A  :----------------|---------------------|----------------|
F  :----------------|(0)------------------|----------------|
C  :--------5-------|-4-------------------|5---------------|
G  :4---4---2-------|-4-------------------|4---*-----------|
C  :4---4---2-------|-4------------4-4-4-4|4---*-----------|

============================================================================

D  :--------------------|----------------|---------------------|
A  :--------------------|----------------|---------------------|
F  :--------------------|----------------|(0)------------------|
C  :--------------------|--------5-------|-4-------------------|
G  :------------4---4---|4---4---2-------|-4-------------------|
C  :----4-4-4-4-4---4---|4---4---2-------|-4------------4-4-4-4|

D  :--------------------|----------------|---------------------|
A  :--------------------|----------------|---------------------|
F  :--------------------|----------------|(0)------------------|
C  :--------------------|--------5-------|-4-------------------|
G  :------------4---4---|4---4---2-------|-4-------------------|
C  :----4-4-4-4-4---4---|4---4---2-------|-4------------4-4-4-4|

============================================================================

D  :----------------|--------------------|----------------|
A  :----------------|--------------------|----------------|
F  :----------------|--------------------|----------------|
C  :5---------------|--------------------|--------5-------|
G  :4---*-----------|------------4---4---|4---4---2-------|
C  :4---*-----------|----4-4-4-4-4---4---|4---4---2-------|

D  :----------------|--------------------|----------------|
A  :----------------|--------------------|----------------|
F  :----------------|--------------------|----------------|
C  :5---------------|--------------------|--------5-------|
G  :4---*-----------|------------4---4---|4---4---2-------|
C  :4---*-----------|----4-4-4-4-4---4---|4---4---2-------|

============================================================================

D  :---------------------|----------------|--------------------|
A  :---------------------|----------------|--------------------|
F  :(0)------------------|----------------|--------------------|
C  :-4-------------------|5---------------|--------------------|
G  :-4-------------------|4---*-----------|------------4---4---|
C  :-4------------4-4-4-4|4---*-----------|----4-4-4-4-4---4---|

D  :---------------------|----------------|--------------------|
A  :---------------------|----------------|--------------------|
F  :(0)------------------|----------------|--------------------|
C  :-4-------------------|5---------------|--------------------|
G  :-4-------------------|4---*-----------|------------4---4---|
C  :-4------------4-4-4-4|4---*-----------|----4-4-4-4-4---4---|


============================================================================

D  :----------------|
A  :----------------|
F  :----------------|
C  :--------5-------|
G  :4---4---2-------|
C  :4---4---2-------|

D  :----------------|
A  :----------------|
F  :----------------|
C  :--------5-------|
G  :4---4---2-------|
C  :4---4---2-------|

============================================================================

D  :---------------------|----------------|--------------------|
A  :---------------------|----------------|--------------------|
F  :(0)------------------|----------------|--------------------|
C  :-4-------------------|5---------------|--------------------|
G  :-4-------------------|4---*-----------|------------4---4---|
C  :-4------------4-4-4-4|4---*-----------|----4-4-4-4-4---4---|

D  :---------------------|----------------|--------------------|
A  :---------------------|----------------|--------------------|
F  :(0)------------------|----------------|--------------------|
C  :-4-------------------|5---------------|--------------------|
G  :-4-------------------|4---*-----------|------------4---4---|
C  :-4------------4-4-4-4|4---*-----------|----4-4-4-4-4---4---|

D  :---------------------|----------------|--------------------|
A  :----------2----------|----------------|--------------------|
F  :--------------0------|----------------|--------------------|
C  :---------------------|4---------------|--------------------|
G  :---------------------|----------------|--------------------|
C  :-4-------------------|----------------|--------------------|

============================================================================

D  :----------------|---------------------|----------------|
A  :----------------|---------------------|----------------|
F  :----------------|(0)------------------|----------------|
C  :--------5-------|-4-------------------|5---------------|
G  :4---4---2-------|-4-------------------|4---*-----------|
C  :4---4---2-------|-4------------4-4-4-4|4---*-----------|

D  :----------------|---------------------|----------------|
A  :----------------|---------------------|----------------|
F  :----------------|(0)------------------|----------------|
C  :--------5-------|-4-------------------|5---------------|
G  :4---4---2-------|-4-------------------|4---*-----------|
C  :4---4---2-------|-4------------4-4-4-4|4---*-----------|

D  :----------------|---------------------|----------------|
A  :----------------|----------2----------|----------------|
F  :----------------|--------------0------|----------------|
C  :----------------|---------------------|4---------------|
G  :----------------|---------------------|----------------|
C  :----------------|-4-------------------|----------------|

============================================================================

D  :--------------------|----------------|---------------------|
A  :--------------------|----------------|---------------------|
F  :--------------------|----------------|(0)------------------|
C  :--------------------|--------5-------|-4-------------------|
G  :------------4---4---|4---4---2-------|-4-------------------|
C  :----4-4-4-4-4---4---|4---4---2-------|-4------------4-4-4-4|

D  :--------------------|----------------|---------------------|
A  :--------------------|----------------|---------------------|
F  :--------------------|----------------|(0)------------------|
C  :--------------------|--------5-------|-4-------------------|
G  :------------4---4---|4---4---2-------|-4-------------------|
C  :----4-4-4-4-4---4---|4---4---2-------|-4------------4-4-4-4|

D  :--------------------|----------------|---------------------|
A  :--------------------|3---------------|----------2----------|
F  :--------------------|--------0-------|--------------0------|
C  :--------------------|----4-----------|---------------------|
G  :--------------------|----------------|---------------------|
C  :--------------------|----------------|-4-------------------|

============================================================================

D  :----------------|--------------------|----------------|
A  :----------------|--------------------|----------------|
F  :----------------|--------------------|----------------|
C  :5---------------|--------------------|--------5-------|
G  :4---*-----------|------------4---4---|4---4---2-------|
C  :4---*-----------|----4-4-4-4-4---4---|4---4---2-------|

D  :----------------|--------------------|----------------|
A  :----------------|--------------------|----------------|
F  :----------------|--------------------|----------------|
C  :5---------------|--------------------|--------5-------|
G  :4---*-----------|------------4---4---|4---4---2-------|
C  :4---*-----------|----4-4-4-4-4---4---|4---4---2-------|

D  :----------------|--------------------|----------------|
A  :----------------|--------------------|----------------|
F  :----------------|--------------------|----------------|
C  :4---------------|--------------------|----------------|
G  :----------------|--------------------|----------------|
C  :----------------|--------------------|----------------|

============================================================================

D  :---------------------|----------------|--------------------|
A  :---------------------|----------------|--------------------|
F  :(0)------------------|----------------|--------------------|
C  :-4-------------------|5---------------|--------------------|
G  :-4-------------------|4---*-----------|------------4---4---|
C  :-4------------4-4-4-4|4---*-----------|----4-4-4-4-4---4---|

D  :---------------------|----------------|--------------------|
A  :---------------------|----------------|--------------------|
F  :(0)------------------|----------------|--------------------|
C  :-4-------------------|5---------------|--------------------|
G  :-4-------------------|4---*-----------|------------4---4---|
C  :-4------------4-4-4-4|4---*-----------|----4-4-4-4-4---4---|

D  :---------------------|----------------|--------------------|
A  :----------2----------|----------------|--------------------|
F  :--------------0------|----------------|--------------------|
C  :---------------------|4---------------|--------------------|
G  :---------------------|----------------|--------------------|
C  :-4-------------------|----------------|--------------------|

============================================================================

D  :----------------|
A  :----------------|
F  :----------------|
C  :--------5-------|
G  :4---4---2-------|
C  :4---4---2-------|

D  :----------------|
A  :----------------|
F  :----------------|
C  :--------5-------|
G  :4---4---2-------|
C  :4---4---2-------|

D  :----------------|
A  :3---------------|
F  :--------0-------|
C  :----4-----------|
G  :----------------|
C  :----------------|

============================================================================

D  :---------------------|----------------|--------------------|
A  :---------------------|----------------|--------------------|
F  :(0)------------------|----------------|--------------------|
C  :-4-------------------|5---------------|--------------------|
G  :-4-------------------|4---*-----------|------------4---4---|
C  :-4------------4-4-4-4|4---*-----------|----4-4-4-4-4---4---|

D  :---------------------|----------------|--------------------|
A  :---------------------|----------------|--------------------|
F  :(0)------------------|----------------|--------------------|
C  :-4-------------------|5---------------|--------------------|
G  :-4-------------------|4---*-----------|------------4---4---|
C  :-4------------4-4-4-4|4---*-----------|----4-4-4-4-4---4---|

============================================================================

D  :----------------|---------------------|----------------|
A  :----------------|---------------------|----------------|
F  :----------------|(0)------------------|----------------|
C  :--------5-------|-4-------------------|5---------------|
G  :4---4---2-------|-4-------------------|4---*-----------|
C  :4---4---2-------|-4------------4-4-4-4|4---*-----------|

D  :----------------|---------------------|----------------|
A  :----------------|---------------------|----------------|
F  :----------------|(0)------------------|----------------|
C  :--------5-------|-4-------------------|5---------------|
G  :4---4---2-------|-4-------------------|4---*-----------|
C  :4---4---2-------|-4------------4-4-4-4|4---*-----------|

============================================================================

D  :--------------------|----------------|---------------------|
A  :--------------------|----------------|---------------------|
F  :--------------------|----------------|(0)------------------|
C  :--------------------|--------5-------|-4-------------------|
G  :------------4---4---|4---4---2-------|-4-------------------|
C  :----4-4-4-4-4---4---|4---4---2-------|-4------------4-4-4-4|

D  :--------------------|----------------|---------------------|
A  :--------------------|----------------|---------------------|
F  :--------------------|----------------|(0)------------------|
C  :--------------------|--------5-------|-4-------------------|
G  :------------4---4---|4---4---2-------|-4-------------------|
C  :----4-4-4-4-4---4---|4---4---2-------|-4------------4-4-4-4|

============================================================================

D  :----------------|--------------------|----------------|
A  :----------------|--------------------|----------------|
F  :----------------|--------------------|----------------|
C  :5---------------|--------------------|--------5-------|
G  :4---*-----------|------------4---4---|4---4---2-------|
C  :4---*-----------|----4-4-4-4-4---4---|4---4---2-------|

D  :----------------|--------------------|----------------|
A  :----------------|--------------------|----------------|
F  :----------------|--------------------|----------------|
C  :5---------------|--------------------|--------5-------|
G  :4---*-----------|------------4---4---|4---4---2-------|
C  :4---*-----------|----4-4-4-4-4---4---|4---4---2-------|

============================================================================

D  :---------------------|----------------|--------------------|
A  :---------------------|----------------|--------------------|
F  :(0)------------------|----------------|--------------------|
C  :-4-------------------|5---------------|--------------------|
G  :-4-------------------|4---*-----------|------------4---4---|
C  :-4------------4-4-4-4|4---*-----------|----4-4-4-4-4---4---|

D  :---------------------|----------------|--------------------|
A  :---------------------|----------------|--------------------|
F  :(0)------------------|----------------|--------------------|
C  :-4-------------------|5---------------|--------------------|
G  :-4-------------------|4---*-----------|------------4---4---|
C  :-4------------4-4-4-4|4---*-----------|----4-4-4-4-4---4---|


============================================================================

D  :----------------|
A  :----------------|
F  :----------------|
C  :--------5-------|
G  :4---4---2-------|
C  :4---4---2-------|

D  :----------------|
A  :----------------|
F  :----------------|
C  :--------5-------|
G  :4---4---2-------|
C  :4---4---2-------|

============================================================================

D  :------------------------|------------5-------|----------------|
A  :--------0-----------0---|*-------5-------8---|----------------|
F  :*---3-----------3-------|*-------------------|--------4--6-7--|
C  :*-----------------------|*--*7---------------|4--5-7----------|
G  :*-----------------------|--------------------|----------------|
C  :4--------*--5----------*|8-------------------|----------------|

D  :------------------------|------------5-------|----------------|
A  :--------0-----------0---|*-------5-------8---|----------------|
F  :*---3-----------3-------|*-------------------|--------4--6-7--|
C  :*-----------------------|*--*7---------------|4--5-7----------|
G  :*-----------------------|--------------------|----------------|
C  :4--------*--5----------*|8-------------------|----------------|


============================================================================

D  :----------------|
A  :------------7---|
F  :6-------4-------|
C  :----8-----------|
G  :----------------|
C  :----------------|

D  :----------------|
A  :------------7---|
F  :6-------4-------|
C  :----8-----------|
G  :----------------|
C  :----------------|

============================================================================

D  :-2--------------------------------------------------------|
A  :-2--------------------------------------------------------|
F  :-4--------------------------------------------------------|
C  :-5--------------------------------------------------------|
G  :----------------------------------------------------------|
C  :----------------------------------------------------------|

D  :-2--------------------------------------------------------|
A  :-2--------------------------------------------------------|
F  :-4--------------------------------------------------------|
C  :-5--------------------------------------------------------|
G  :----------------------------------------------------------|
C  :----------------------------------------------------------|

D  :----------------------12-------/--------15----------------|
A  :-----------12--14-15---------------------------------15---|
F  :11--12-14-------------------------------------------------|
C  :----------------------------------------------------------|
G  :----------------------------------------------------------|
C  :----------------------------------------------------------|

============================================================================

D  :-5-------------------------------------------|
A  :-5-------------------------------------------|
F  :-7-------------------------------------------|
C  :-8-------------------------------------------|
G  :---------------------------------------------|
C  :---------------------------------------------|

D  :-5-------------------------------------------|
A  :-5-------------------------------------------|
F  :-7-------------------------------------------|
C  :-8-------------------------------------------|
G  :---------------------------------------------|
C  :---------------------------------------------|

D  :---------------------------------------------|
A  :/------------15------------------------------|
F  :-----------------17-15--14-------------------|
C  :----------------------------17-16--15--14----|
G  :---------------------------------------------|
C  :---------------------------------------------|

============================================================================

D  :----------------------------|------------------------------|
A  :----------------------------|------------------------------|
F  :----------------------------|11-11---------3-------3---7---|
C  :--------12-12---------11-11-|------5---7-------7-----------|
G  :----9-9-----------8-8-------|------------------------------|
C  :9-9-----------8-8-----------|------------------------------|

D  :----------------------------|------------------------------|
A  :----------------------------|------------------------------|
F  :----------------------------|11-11---------3-------3---7---|
C  :--------12-12---------11-11-|------5---7-------7-----------|
G  :----9-9-----------8-8-------|------------------------------|
C  :9-9-----------8-8-----------|------------------------------|

D  :----------------------------|------*-----------------------|
A  :----------------------------|------*-----------------------|
F  :----------------------------|------*-----------------------|
C  :----------------------------|------*-----------------------|
G  :----------------------------|------*-----------------------|
C  :----------------------------|------*-----------------------|

============================================================================

D  :---------------------|----------------|--------------------|
A  :---------------------|----------------|--------------------|
F  :(0)------------------|----------------|--------------------|
C  :-4-------------------|5---------------|--------------------|
G  :-4-------------------|4---*-----------|------------4---4---|
C  :-4------------4-4-4-4|4---*-----------|----4-4-4-4-4---4---|

D  :---------------------|----------------|--------------------|
A  :---------------------|----------------|--------------------|
F  :(0)------------------|----------------|--------------------|
C  :-4-------------------|5---------------|--------------------|
G  :-4-------------------|4---*-----------|------------4---4---|
C  :-4------------4-4-4-4|4---*-----------|----4-4-4-4-4---4---|

============================================================================

D  :----------------|---------------------|----------------|
A  :----------------|---------------------|----------------|
F  :----------------|(0)------------------|----------------|
C  :--------5-------|-4-------------------|5---------------|
G  :4---4---2-------|-4-------------------|4---*-----------|
C  :4---4---2-------|-4------------4-4-4-4|4---*-----------|

D  :----------------|---------------------|----------------|
A  :----------------|---------------------|----------------|
F  :----------------|(0)------------------|----------------|
C  :--------5-------|-4-------------------|5---------------|
G  :4---4---2-------|-4-------------------|4---*-----------|
C  :4---4---2-------|-4------------4-4-4-4|4---*-----------|

============================================================================

D  :--------------------|----------------|---------------------|
A  :--------------------|----------------|---------------------|
F  :--------------------|----------------|(0)------------------|
C  :--------------------|--------5-------|-4-------------------|
G  :------------4---4---|4---4---2-------|-4-------------------|
C  :----4-4-4-4-4---4---|4---4---2-------|-4------------4-4-4-4|

D  :--------------------|----------------|---------------------|
A  :--------------------|----------------|---------------------|
F  :--------------------|----------------|(0)------------------|
C  :--------------------|--------5-------|-4-------------------|
G  :------------4---4---|4---4---2-------|-4-------------------|
C  :----4-4-4-4-4---4---|4---4---2-------|-4------------4-4-4-4|

============================================================================

D  :----------------|--------------------|----------------|
A  :----------------|--------------------|----------------|
F  :----------------|--------------------|----------------|
C  :5---------------|--------------------|--------5-------|
G  :4---*-----------|------------4---4---|4---4---2-------|
C  :4---*-----------|----4-4-4-4-4---4---|4---4---2-------|

D  :----------------|--------------------|----------------|
A  :----------------|--------------------|----------------|
F  :----------------|--------------------|----------------|
C  :5---------------|--------------------|--------5-------|
G  :4---*-----------|------------4---4---|4---4---2-------|
C  :4---*-----------|----4-4-4-4-4---4---|4---4---2-------|

============================================================================

D  :---------------------|----------------|--------------------|
A  :---------------------|----------------|--------------------|
F  :(0)------------------|----------------|--------------------|
C  :-4-------------------|5---------------|--------------------|
G  :-4-------------------|4---*-----------|------------4---4---|
C  :-4------------4-4-4-4|4---*-----------|----4-4-4-4-4---4---|

D  :---------------------|----------------|--------------------|
A  :---------------------|----------------|--------------------|
F  :(0)------------------|----------------|--------------------|
C  :-4-------------------|5---------------|--------------------|
G  :-4-------------------|4---*-----------|------------4---4---|
C  :-4------------4-4-4-4|4---*-----------|----4-4-4-4-4---4---|

============================================================================

D  :----------------|
A  :----------------|
F  :----------------|
C  :--------5-------|
G  :4---4---2-------|
C  :4---4---2-------|

D  :----------------|
A  :----------------|
F  :----------------|
C  :--------5-------|
G  :4---4---2-------|
C  :4---4---2-------|

============================================================================

D  :5---------------|5---5-----------|----2-----------|2-------2-------|
A  :7---------------|7---7-----------|----2-----------|2-------2-------|
F  :x---------------|x---x-------4---|----4-----------|4-------4-------|
C  :8---------------|8---8-------4---|----4-----------|4-------4-------|
G  :5-------5---5---|5---5---5---2---|--------2---2---|2---2---2---2---|
C  :5-------5---5---|5---5---5---2---|--------2---2---|2---2---2---2---|

D  :5---------------|5---5-----------|----2-----------|2-------2-------|
A  :7---------------|7---7-----------|----2-----------|2-------2-------|
F  :x---------------|x---x-------4---|----4-----------|4-------4-------|
C  :8---------------|8---8-------4---|----4-----------|4-------4-------|
G  :5-------5---5---|5---5---5---2---|--------2---2---|2---2---2---2---|
C  :5-------5---5---|5---5---5---2---|--------2---2---|2---2---2---2---|

============================================================================

D  :----------------|----------------|----------------|----------------|
A  :7---------------|7-------7-------|----0-----------|----------------|
F  :x---------------|x-------x---9---|----9-----------|9-------9-------|
C  :9---------------|9-------9---9---|----9-----------|9-------9-------|
G  :5-------5---5---|5---5---5---7---|--------7---7---|7---7---7---7---|
C  :5-------5---5---|5---5---5---6---|--------6---6---|6---6---6---6---|

D  :----------------|----------------|----------------|----------------|
A  :7---------------|7-------7-------|----0-----------|----------------|
F  :x---------------|x-------x---9---|----9-----------|9-------9-------|
C  :9---------------|9-------9---9---|----9-----------|9-------9-------|
G  :5-------5---5---|5---5---5---7---|--------7---7---|7---7---7---7---|
C  :5-------5---5---|5---5---5---6---|--------6---6---|6---6---6---6---|

============================================================================

D  :------------------|--------------------|
A  :------------------|--------------------|
F  :------------------|----------11-11-----|
C  :--------12-12-----|----11-11-------5---|
G  :----9-9-----------|8-8-----------------|
C  :9-9-----------8-8-|--------------------|

D  :------------------|--------------------|
A  :------------------|--------------------|
F  :------------------|----------11-11-----|
C  :--------12-12-----|----11-11-------5---|
G  :----9-9-----------|8-8-----------------|
C  :9-9-----------8-8-|--------------------|

============================================================================

D  :--------------------|
A  :--------------------|
F  :----3-------3---7---|
C  :7-------7-----------|
G  :--------------------|
C  :--------------------|

D  :--------------------|
A  :--------------------|
F  :----3-------3---7---|
C  :7-------7-----------|
G  :--------------------|
C  :--------------------|

============================================================================

D  :---------------------|----------------|--------------------|
A  :---------------------|----------------|--------------------|
F  :(0)------------------|----------------|--------------------|
C  :-4-------------------|5---------------|--------------------|
G  :-4-------------------|4---*-----------|------------4---4---|
C  :-4------------4-4-4-4|4---*-----------|----4-4-4-4-4---4---|

D  :---------------------|----------------|--------------------|
A  :---------------------|----------------|--------------------|
F  :(0)------------------|----------------|--------------------|
C  :-4-------------------|5---------------|--------------------|
G  :-4-------------------|4---*-----------|------------4---4---|
C  :-4------------4-4-4-4|4---*-----------|----4-4-4-4-4---4---|

============================================================================

D  :----------------|
A  :----------------|
F  :----------------|
C  :--------5-------|
G  :4---4---2-------|
C  :4---4---2-------|

D  :----------------|
A  :----------------|
F  :----------------|
C  :--------5-------|
G  :4---4---2-------|
C  :4---4---2-------|

============================================================================

D  :-------------------------------|--------------------------------|
A  :-------------------------------|--------------------------------|
F  :-------------------------------|--------------------------------|
C  :-------------------------------|--------------------------------|
G  :-------------------------------|----------------5----4-----2----|
C  :2-2-4-4-4-4-2-2-4-4-4-4-2-2-4-4|5-5-5-5-5-5-5-5-5----4-----2----|

D  :-------------------------------|--------------------------------|
A  :-------------------------------|--------------------------------|
F  :-------------------------------|--------------------------------|
C  :*------------------------------|--------------------------------|
G  :*------------------------------|----------------5----4-----2----|
C  :*------------------------------|5-5-5-5-5-5-5-5-5----4-----2----|

============================================================================

D  :------------------------|-----------------------------------|
A  :------------------------|-----------------------------------|
F  :------------------------|-----------------------------------|
C  :12--8--------8----------|----------------9-9-9-9------------|
G  :-------9--------9-------|------------------------10-10-10-10|
C  :---------12-------12--8-|9-9-9-9-9-9-9-9--------------------|

D  :------------------------|-----------------------------------|
A  :------------------------|-----------------------------------|
F  :------------------------|-----------------------------------|
C  :16-12-------12----------|----------------9-9-9-9------------|
G  :------13-------13-------|------------------------10-10-10-10|
C  :---------16-------16-12-|9-9-9-9-9-9-9-9--------------------|

============================================================================

D  :-------------------------------|---------------------|
A  :-------------------------------|---------------------|
F  :-------------------------------|---------------------|
C  :8-8-8-8------------------------|---------------------|
G  :--------9-9-9-9----------------|9-10-9------9--------|
C  :----------------8-8-8-8-8-8-8-8|-------12-9---12-9-8-|

D  :-------------------------------|---------------------|
A  :-------------------------------|---------------------|
F  :-------------------------------|---------------------|
C  :8-8-8-8------------------------|---------------------|
G  :--------9-9-9-9----------------|9-10-9------9--------|
C  :----------------8-8-8-8-8-8-8-8|-------12-9---12-9-8-|

============================================================================

D  :-------------------------------|-------------------------|
A  :-------------------------------|-------------------------|
F  :-------------------------------|-------------------------|
C  :-------------------------------|---------------------5---|
G  :----------------9-9-9-9--------|-----------------9-------|
C  :5-5-5-5-5-5-5-5---------5-5-5-5|8-8-8-8-8-8-8-8----------|

D  :-------------------------------|-------------------------|
A  :-------------------------------|-------------------------|
F  :-------------------------------|---------------------7---|
C  :-------------------------------|----------------11-------|
G  :----------------9-9-9-9--------|-------------------------|
C  :5-5-5-5-5-5-5-5---------5-5-5-5|8-8-8-8-8-8-8-8----------|

============================================================================

D  :-------------------|------------------------|
A  :-------------------|------------------------|
F  :-------------------|------------------------|
C  :---------11-8------|8-----------------------|
G  :-9------------9----|--9---------------------|
C  :----------------11-|----11-8-9-9-9-9-9-9-9-9|

D  :-------------------|------------------------|
A  :-------------------|------------------------|
F  :-------------------|------------------------|
C  :11-------11-8------|8-----------------------|
G  :--------------9----|--9---------------------|
C  :----------------11-|----11-8-9-9-9-9-9-9-9-9|

============================================================================

D  :-----------------------------------|----------------------------|
A  :-----------------------------------|----------------------------|
F  :-----------------------------------|----------------------------|
C  :9-9-9-9-------------8-8-8-8--------|----------------------------|
G  :--------10-10-10-10---------9-9-9-9|----------------9-10-9------|
C  :-----------------------------------|8-8-8-8-8-8-8-8--------12-9-|

D  :-----------------------------------|----------------------------|
A  :-----------------------------------|----------------------------|
F  :-----------------------------------|----------------------------|
C  :9-9-9-9-------------8-8-8-8--------|----------------------------|
G  :--------10-10-10-10---------9-9-9-9|----------------9-10-9------|
C  :-----------------------------------|8-8-8-8-8-8-8-8--------12-9-|

============================================================================

D  :------------------------|-------------------------------|
A  :------------------------|-------------------------------|
F  :------------------------|-------------------------------|
C  :------------------------|-------------------------------|
G  :9-----------------------|9-9-9-9------------------------|
C  :--12-9-8-5-5-5-5-5-5-5-5|--------5-5-5-5-8-8-8-8-8-8-8-8|

D  :------------------------|-------------------------------|
A  :------------------------|-------------------------------|
F  :------------------------|-------------------------------|
C  :------------------------|-------------------------------|
G  :9-----------------------|9-9-9-9------------------------|
C  :--12-9-8-5-5-5-5-5-5-5-5|--------5-5-5-5-8-8-8-8-8-8-8-8|

============================================================================

D  :------------------------|---------------------|
A  :------------------------|---------------------|
F  :-------------*----------|---------------------|
C  :-----5------/-/--/------|12------------9-9-9-9|
G  :-9--------9--------16---|-----16--------------|
C  :------------------------|---------------------|

D  :------------------------|---------------------|
A  :------------------------|---------------------|
F  :-----7-------*----------|12-------------------|
C  :11-------11-/-/--/-16---|-----16-------9-9-9-9|
G  :------------------------|---------------------|
C  :------------------------|---------------------|

============================================================================

D  :-----------------------------------|-------------------------|
A  :-----------------------------------|-------------------------|
F  :-----------------------------------|-------------------------|
C  :------------8-8-8-8----------------|-------------------------|
G  :10-10-10-10---------9-9-9-9--------|--------9-10-9------9----|
C  :----------------------------8-8-8-8|8-8-8-8--------12-9---12-|

D  :-----------------------------------|-------------------------|
A  :-----------------------------------|-------------------------|
F  :-----------------------------------|-------------------------|
C  :------------8-8-8-8----------------|-------------------------|
G  :10-10-10-10---------9-9-9-9--------|--------9-10-9------9----|
C  :----------------------------8-8-8-8|8-8-8-8--------12-9---12-|

============================================================================

D  :---------------------------|-------------------------|-----------------|
A  :---------------------------|-------------------------|-----------------|
F  :---------------------------|-------------------------|-----------------|
C  :---------------------------|-------------------------|-----------------|
G  :--------------------9-9-9-9|--------9-10-9-7----7----|-----------9-----|
C  :9-8-5-5-5-5-5-5-5-5--------|5-5-5-5----------12---12-|11-9-8-----------|

D  :---------------------------|-------------------------|-----------------|
A  :---------------------------|-------------------------|-----------------|
F  :---------------------------|-------------------------|-----------------|
C  :---------------------------|-------------------------|-----------------|
G  :--------------------9-9-9-9|--------9-10-9-7----7----|-----------9-----|
C  :9-8-5-5-5-5-5-5-5-5--------|5-5-5-5----------12---12-|11-9-8-----------|

============================================================================

D  :----------------|----------------|----------------|--------|
A  :----7-----------|----------------|----------------|--------|
F  :----7-----------|----------------|----------------|--------|
C  :8---8-----------|----------------|----------------|--------|
G  :----9-----------|----------------|----------------|--------|
C  :----------------|----------------|----------------|--------|

D  :----------------|----------------|----------------|--------|
A  :----7-----------|----------------|----------------|--------|
F  :----7-----------|----------------|----------------|--------|
C  :8---8-----------|----------------|----------------|--------|
G  :----9-----------|----------------|----------------|--------|
C  :----------------|----------------|----------------|--------|

============================================================================

D  :--------------------------------------|
A  :--------------------------------------|
F  :-7-----7------7-----7-----7------7----|
C  :11----11-----11----11----11-----11----|
G  :-9-----9------9-----9-----9------9----|
C  :-9-----9------9-----9-----9------9----|

D  :--------------------------------------|
A  :--------------------------------------|
F  :-7-----7------7-----7-----7------7----|
C  :11----11-----11----11----11-----11----|
G  :-9-----9------9-----9-----9------9----|
C  :-9-----9------9-----9-----9------9----|

============================================================================

D  :--------------------------------------|
A  :--------------------------------------|
F  :-7-----7------7-----7-----7------7----|
C  :11----11-----11----11----11-----11----|
G  :-9-----9------9-----9-----9------9----|
C  :-9-----9------9-----9-----9------9----|

D  :--------------------------------------|
A  :--------------------------------------|
F  :-7-----7------7-----7-----7------7----|
C  :11----11-----11----11----11-----11----|
G  :-9-----9------9-----9-----9------9----|
C  :-9-----9------9-----9-----9------9----|

============================================================================

D  :--------------------------------------|
A  :--------------------------------------|
F  :-7-----7------7----11----11-----11----|
C  :11----11-----11----15----15-----15----|
G  :-9-----9------9----13----13-----13----|
C  :-9-----9------9----13----13-----13----|

D  :--------------------------------------|
A  :--------------------------------------|
F  :-7-----7------7----11----11-----11----|
C  :11----11-----11----15----15-----15----|
G  :-9-----9------9----13----13-----13----|
C  :-9-----9------9----13----13-----13----|

============================================================================

D  :--------------------------------------|
A  :--------------------------------------|
F  :11----11-----11----11----11-----11----|
C  :15----15-----15----15----15-----15----|
G  :13----13-----13----13----13-----13----|
C  :13----13-----13----13----13-----13----|

D  :--------------------------------------|
A  :--------------------------------------|
F  :11----11-----11----11----11-----11----|
C  :15----15-----15----15----15-----15----|
G  :13----13-----13----13----13-----13----|
C  :13----13-----13----13----13-----13----|

============================================================================

D  :--------------------------------------|
A  :--------------------------------------|
F  :11----11-----11----11----11-----11----|
C  :15----15-----15----15----15-----15----|
G  :13----13-----13----13----13-----13----|
C  :13----13-----13----13----13-----13----|

D  :--------------------------------------|
A  :--------------------------------------|
F  :11----11-----11----11----11-----11----|
C  :15----15-----15----15----15-----15----|
G  :13----13-----13----13----13-----13----|
C  :13----13-----13----13----13-----13----|

============================================================================

D  :--------------------------------------|
A  :--------------------------------------|
F  :-7-----7------7-----7-----7------7----|
C  :11----11-----11----11----11-----11----|
G  :-9-----9------9-----9-----9------9----|
C  :-9-----9------9-----9-----9------9----|

D  :--------------------------------------|
A  :--------------------------------------|
F  :-7-----7------7-----7-----7------7----|
C  :11----11-----11----11----11-----11----|
G  :-9-----9------9-----9-----9------9----|
C  :-9-----9------9-----9-----9------9----|

============================================================================

D  :--------------------------------------|
A  :--------------------------------------|
F  :-7-----7------7-----7-----7------7----|
C  :11----11-----11----11----11-----11----|
G  :-9-----9------9-----9-----9------9----|
C  :-9-----9------9-----9-----9------9----|

D  :--------------------------------------|
A  :--------------------------------------|
F  :-7-----7------7-----7-----7------7----|
C  :11----11-----11----11----11-----11----|
G  :-9-----9------9-----9-----9------9----|
C  :-9-----9------9-----9-----9------9----|

============================================================================

D  :--------------------------------------|
A  :--------------------------------------|
F  :-7-----7------7----11----11-----11----|
C  :11----11-----11----15----15-----15----|
G  :-9-----9------9----13----13-----13----|
C  :-9-----9------9----13----13-----13----|

D  :--------------------------------------|
A  :--------------------------------------|
F  :-7-----7------7----11----11-----11----|
C  :11----11-----11----15----15-----15----|
G  :-9-----9------9----13----13-----13----|
C  :-9-----9------9----13----13-----13----|

============================================================================

D  :--------------------------------------|
A  :--------------------------------------|
F  :11----11-----11----11----11-----11----|
C  :15----15-----15----15----15-----15----|
G  :13----13-----13----13----13-----13----|
C  :13----13-----13----13----13-----13----|

D  :--------------------------------------|
A  :--------------------------------------|
F  :11----11-----11----11----11-----11----|
C  :15----15-----15----15----15-----15----|
G  :13----13-----13----13----13-----13----|
C  :13----13-----13----13----13-----13----|

============================================================================

D  :--------------------------------------|
A  :--------------------------------------|
F  :11----11-----11----11----11-----11----|
C  :15----15-----15----15----15-----15----|
G  :13----13-----13----13----13-----13----|
C  :13----13-----13----13----13-----13----|

D  :--------------------------------------|
A  :--------------------------------------|
F  :11----11-----11----11----11-----11----|
C  :15----15-----15----15----15-----15----|
G  :13----13-----13----13----13-----13----|
C  :13----13-----13----13----13-----13----|

============================================================================

D  :----------------------------------|----------------------------------|
A  :----------------------------------|----------------------------------|
F  :-----------------7----------------|-----------------7----------------|
C  :-----11---------------11----------|-----11---------------11----------|
G  :------------9----------------9----|------------9----------------9----|
C  :9---------------------------------|9---------------------------------|

D  :----------------------------------|----------------------------------|
A  :----------------------------------|----------------------------------|
F  :-----------------7----------------|-----------------7----------------|
C  :-----11---------------11----------|-----11---------------11----------|
G  :------------9----------------9----|------------9----------------9----|
C  :9---------------------------------|9---------------------------------|

============================================================================

D  :----------------------------------|----------------------------------|
A  :----------------------------------|----------------------------------|
F  :-----------------7----------------|-----------------7----------------|
C  :-----11---------------11----------|-----11---------------11----------|
G  :------------9----------------9----|------------9----------------9----|
C  :9---------------------------------|9---------------------------------|

D  :----------------------------------|----------------------------------|
A  :----------------------------------|----------------------------------|
F  :-----------------7----------------|-----------------7----------------|
C  :-----11---------------11----------|-----11---------------11----------|
G  :------------9----------------9----|------------9----------------9----|
C  :9---------------------------------|9---------------------------------|

============================================================================

D  :--------------------------------------|
A  :--------------------------------------|
F  :-------------------11-----------------|
C  :------15-----------------15-----------|
G  :-------------13-----------------13----|
C  :13------------------------------------|

D  :--------------------------------------|
A  :--------------------------------------|
F  :-------------------11-----------------|
C  :------15-----------------15-----------|
G  :-------------13-----------------13----|
C  :13------------------------------------|

============================================================================

D  :--------------------------------------|
A  :--------------------------------------|
F  :-------------------11-----------------|
C  :------15-----------------15-----------|
G  :-------------13-----------------13----|
C  :13------------------------------------|

D  :--------------------------------------|
A  :--------------------------------------|
F  :-------------------11-----------------|
C  :------15-----------------15-----------|
G  :-------------13-----------------13----|
C  :13------------------------------------|

============================================================================

D  :--------------------------------------|
A  :--------------------------------------|
F  :-------------------11-----------------|
C  :------15-----------------15-----------|
G  :-------------13-----------------13----|
C  :13------------------------------------|

D  :--------------------------------------|
A  :--------------------------------------|
F  :-------------------11-----------------|
C  :------15-----------------15-----------|
G  :-------------13-----------------13----|
C  :13------------------------------------|

============================================================================

D  :--------------------------------------|
A  :--------------------------------------|
F  :-------------------11-----------------|
C  :------15-----------------15-----------|
G  :-------------13-----------------13----|
C  :13------------------------------------|

D  :--------------------------------------|
A  :--------------------------------------|
F  :-------------------11-----------------|
C  :------15-----------------15-----------|
G  :-------------13-----------------13----|
C  :13------------------------------------|

============================================================================

D  :----------------------------------|----------------------------------|
A  :----------------------------------|----------------------------------|
F  :-----------------7----------------|-----------------7----------------|
C  :-----11---------------11----------|-----11---------------11----------|
G  :------------9----------------9----|------------9----------------9----|
C  :9---------------------------------|9---------------------------------|

D  :----------------------------------|----------------------------------|
A  :----------------------------------|----------------------------------|
F  :-----------------7----------------|-----------------7----------------|
C  :-----11---------------11----------|-----11---------------11----------|
G  :------------9----------------9----|------------9----------------9----|
C  :9---------------------------------|9---------------------------------|

============================================================================

D  :----------------------------------|----------------------------------|
A  :----------------------------------|----------------------------------|
F  :-----------------7----------------|-----------------7----------------|
C  :-----11---------------11----------|-----11---------------11----------|
G  :------------9----------------9----|------------9----------------9----|
C  :9---------------------------------|9---------------------------------|

D  :----------------------------------|----------------------------------|
A  :----------------------------------|----------------------------------|
F  :-----------------7----------------|-----------------7----------------|
C  :-----11---------------11----------|-----11---------------11----------|
G  :------------9----------------9----|------------9----------------9----|
C  :9---------------------------------|9---------------------------------|

============================================================================

D  :--------------------------------------|
A  :--------------------------------------|
F  :-------------------11-----------------|
C  :------15-----------------15-----------|
G  :-------------13-----------------13----|
C  :13------------------------------------|

D  :--------------------------------------|
A  :--------------------------------------|
F  :-------------------11-----------------|
C  :------15-----------------15-----------|
G  :-------------13-----------------13----|
C  :13------------------------------------|

============================================================================

D  :--------------------------------------|
A  :--------------------------------------|
F  :-------------------11-----------------|
C  :------15-----------------15-----------|
G  :-------------13-----------------13----|
C  :13------------------------------------|

D  :--------------------------------------|
A  :--------------------------------------|
F  :-------------------11-----------------|
C  :------15-----------------15-----------|
G  :-------------13-----------------13----|
C  :13------------------------------------|

============================================================================

D  :--------------------------------------|
A  :--------------------------------------|
F  :-------------------11-----------------|
C  :------15-----------------15-----------|
G  :-------------13-----------------13----|
C  :13------------------------------------|

D  :--------------------------------------|
A  :--------------------------------------|
F  :-------------------11-----------------|
C  :------15-----------------15-----------|
G  :-------------13-----------------13----|
C  :13------------------------------------|

============================================================================

D  :--------------------------------------|
A  :--------------------------------------|
F  :-------------------11-----------------|
C  :------15-----------------15-----------|
G  :-------------13-----------------13----|
C  :13------------------------------------|

D  :--------------------------------------|
A  :--------------------------------------|
F  :-------------------11-----------------|
C  :------15-----------------15-----------|
G  :-------------13-----------------13----|
C  :13------------------------------------|

============================================================================

D  :----------------------------------|
A  :----------------------------------|
F  :-----------------7----------------|
C  :-----11---------------11----------|
G  :------------9----------------9----|
C  :9---------------------------------|

D  :----------------------------------|
A  :----------------------------------|
F  :-----------------7----------------|
C  :-----11---------------11----------|
G  :------------9----------------9----|
C  :9---------------------------------|

D  :----------------------------------|
A  :----------------------------------|
F  :----------------------------------|
C  :9---------------------------------|
G  :----------------------------------|
C  :----------------------------------|

============================================================================

D  :--------------------------------------|
A  :--------------------------------------|
F  :-----------------7--------------------|
C  :-----11-----------------11------------|
G  :------------9--------------------9----|
C  :9-------------------------------------|

D  :--------------------------------------|
A  :--------------------------------------|
F  :-----------------7--------------------|
C  :-----11-----------------11------------|
G  :------------9--------------------9----|
C  :9-------------------------------------|

D  :--------------------------------------|
A  :--------------------------------------|
F  :--------------------------------------|
C  :---------------------11-------12------|
G  :--------------------------------------|
C  :--------------------------------------|

============================================================================

D  :----------------------------------|------------------------------------|
A  :----------------------------------|------------------------------------|
F  :------------------7---------------|-------------------7----------------|
C  :------11---------------11---------|-------11---------------11----------|
G  :-------------9----------------9---|--------------9----------------9----|
C  :-9--------------------------------|--9---------------------------------|

D  :----------------------------------|------------------------------------|
A  :----------------------------------|------------------------------------|
F  :------------------7---------------|-------------------7----------------|
C  :------11---------------11---------|-------11---------------11----------|
G  :-------------9----------------9---|--------------9----------------9----|
C  :-9--------------------------------|--9---------------------------------|

D  :----------------------------------|------------------------------------|
A  :----------------------------------|------------------------------------|
F  :----------------------------------|/14---------------------------------|
C  :11--------------------------------|------------------------------------|
G  :----------------------------------|------------------------------------|
C  :----------------------------------|------------------------------------|

============================================================================

D  :------------------------------------------|
A  :------------------------------------------|
F  :-------------------11---------------------|
C  :------15-------------------15-------------|
G  :-------------13---------------------13----|
C  :13----------------------------------------|

D  :------------------------------------------|
A  :------------------------------------------|
F  :-------------------11---------------------|
C  :------15-------------------15-------------|
G  :-------------13---------------------13----|
C  :13----------------------------------------|

D  :------------------------------------------|
A  :------------------------------------------|
F  :15----------------------13----------------|
C  :---------------------------------16-------|
G  :------------------------------------------|
C  :------------------------------------------|

============================================================================

D  :-----------------------------------------|
A  :-----------------------------------------|
F  :-------------------11--------------------|
C  :------15-------------------15------------|
G  :-------------13--------------------13----|
C  :13---------------------------------------|

D  :-----------------------------------------|
A  :-----------------------------------------|
F  :-------------------11--------------------|
C  :------15-------------------15------------|
G  :-------------13--------------------13----|
C  :13---------------------------------------|

D  :-----------------------------------------|
A  :-----------------------------------------|
F  :-----------------------------------------|
C  :15----------------------15-------/-------|
G  :-----------------------------------------|
C  :-----------------------------------------|

============================================================================

D  :--------------------------------------|
A  :--------------------------------------|
F  :-------------------11-----------------|
C  :------15-----------------15-----------|
G  :-------------13-----------------13----|
C  :13------------------------------------|

D  :--------------------------------------|
A  :--------------------------------------|
F  :-------------------11-----------------|
C  :------15-----------------15-----------|
G  :-------------13-----------------13----|
C  :13------------------------------------|

D  :--------------------------------------|
A  :--------------------------------------|
F  :--------------------------------------|
C  :13------------------------------------|
G  :--------------------------------------|
C  :--------------------------------------|

============================================================================

D  :--------------------------------------|
A  :--------------------------------------|
F  :-------------------11-----------------|
C  :------15-----------------15-----------|
G  :-------------13-----------------13----|
C  :13------------------------------------|

D  :--------------------------------------|
A  :--------------------------------------|
F  :-------------------11-----------------|
C  :------15-----------------15-----------|
G  :-------------13-----------------13----|
C  :13------------------------------------|

D  :--------------------------------------|
A  :--------------------------------------|
F  :--------------------------------------|
C  :-------------------11-----------------|
G  :--------------------------------------|
C  :--------------------------------------|

============================================================================

D  :-----------------------------------|
A  :-----------------------------------|
F  :------------------7----------------|
C  :------11---------------11----------|
G  :-------------9----------------9----|
C  :-9---------------------------------|

D  :-----------------------------------|
A  :-----------------------------------|
F  :------------------7----------------|
C  :------11---------------11----------|
G  :-------------9----------------9----|
C  :-9---------------------------------|

D  :-----------------------------------|
A  :-----------------------------------|
F  :-----------------------------------|
C  :12---------------------------------|
G  :-----------------------------------|
C  :-----------------------------------|

============================================================================

D  :-------------------------------------|
A  :-------------------------------------|
F  :-------------------7-----------------|
C  :-----11-----------------11-----------|
G  :-------------9----------------9------|
C  :9------------------------------------|

D  :-------------------------------------|
A  :-------------------------------------|
F  :-------------------7-----------------|
C  :-----11-----------------11-----------|
G  :-------------9----------------9------|
C  :9------------------------------------|

D  :-------------------------------------|
A  :---------------------------15---17---|
F  :------------------14-16-18-----------|
C  :---------12-14-16--------------------|
G  :-------------------------------------|
C  :-------------------------------------|

============================================================================

D  :-----------------------------------|
A  :--------------------------------
I want to post or [tab]
guest
You may want to rate the tab now too:
select rating
Please do not post tabs as comments. Select "correction" instead!