Oops, an error
Loading. Please wait.

Xenochrist Tab

ver1
ver1

Whole song

Interactive

More versions @911Tabs.com
27,262 views 24 this week
4 commentsread comments
1 2 3 4 5
excellent!
x 9
Autoscroll
+/-
esc
set tempo
stop
Contributor
Tabbers playing skills
intermediate
Hey! There's an official Ultimate Guitar app which is ideal
for learning songs when you're away from computer. Get the app
WARNING: You are trying to view
                                    content from Ultimate-Guitar.com
                                    in an unauthorized application,
                                    which is prohibited.

                                    Please use an official Ultimate
                                    Guitar Tabs application for iPhone,
                                    iPad or Android to access legitimate
                                    chords, guitar, bass, and drum tabs
                                    from Ultimate-Guitar.com database.

                                    Type "ultimate guitar tabs" in Apple
                                    App Store's or Android Market's
                                    search to find the application.
XenoChrist
The Faceless
Planetary Duality
C G C F A D

1st line- LEAD
2nd line- RHYTHEM
3rd line- SOLOS

this is here for those of us who dont have GP i have no idea what the GP has on it THIS 
NOT A COPY FROM GP!!
its lenghty but its a long song and i had to get the last solo in at the end
i have the Bass part as well PM me for it if you want


D  :------------|-------------------------------|
A  :------------|-------------------------------|
F  :6-7-6-------|-------------------------------|
C  :------7-6-4-|3-3-3-3-3-3--------------------|
G  :------------|------------5-5-5-5-5-5--------|
C  :------------|------------------------4-4-4-4|


D  :------------|-------------------------------|
A  :------------|-------------------------------|
F  :------------|-------------------------------|
C  :------------|3-3-3-3-3-3--------------------|
G  :------------|------------5-5-5-5-5-5--------|
C  :------------|------------------------4-4-4-4|

============================================================================


D  :-------------------------------|-------------------------------|
A  :-------------------------------|-------------------------------|
F  :-------------------------------|5-5-5-5-4-4-4-4----------------|
C  :--------5-5-5-5-6-6-6-6-6-6-6-6|-------------------------------|
G  :-------------------------------|-------------------------------|
C  :3-3-3-3------------------------|----------------6-6-6-6-6-6-6-6|


D  :-------------------------------|-------------------------------|
A  :-------------------------------|-------------------------------|
F  :-------------------------------|5-5-5-5-4-4-4-4----------------|
C  :--------5-5-5-5-6-6-6-6-6-6-6-6|-------------------------------|
G  :-------------------------------|-------------------------------|
C  :3-3-3-3------------------------|----------------6-6-6-6-6-6-6-6|

============================================================================


D  :-------------------------------|-------------------------------|
A  :-------------------------------|-------------------------------|
F  :----------------5-5-5-5-4-4-4-4|-------------------------------|
C  :-------------------------------|-------------------------------|
G  :-------------------------------|-------------------------------|
C  :6-6-6-6-6-6-6-6----------------|6-6-6-6-6-6-6-6-3-3-3-3-3-3-3-3|


D  :-------------------------------|-------------------------------|
A  :-------------------------------|-------------------------------|
F  :----------------5-5-5-5-4-4-4-4|-------------------------------|
C  :-------------------------------|-------------------------------|
G  :-------------------------------|-------------------------------|
C  :6-6-6-6-6-6-6-6----------------|6-6-6-6-6-6-6-6-3-3-3-3-3-3-3-3|

============================================================================


D  :-------------------------------|------------------|----------|
A  :-------------------------------|------------------|----------|
F  :5-5-5-5-4-4-4-4----------------|------------------|----------|
C  :-------------------------------|------------------|4-3---3---|
G  :-------------------------------|------------------|----------|
C  :----------------6-6-6-6-6-6-6-6|3-3-3-3-3-3-3-3-0-|----0---0-|


D  :-------------------------------|------------------|----------|
A  :-------------------------------|------------------|----------|
F  :5-5-5-5-4-4-4-4----------------|------------------|----------|
C  :-------------------------------|------------------|----------|
G  :-------------------------------|----------------0-|*---------|
C  :----------------6-6-6-6-6-6-6-6|3-3-3-3-3-3-3-3-0-|*---------|

============================================================================


D  :----------|----------|----------|----------|
A  :----------|----------|----------|----------|
F  :----------|----------|----------|----------|
C  :----3-----|--3-------|----6-----|--6-------|
G  :----------|----------|----------|----------|
C  :4-------4-|------4---|7-------7-|------7---|


D  :----------|----------|----------|----------|
A  :----------|----------|----------|----------|
F  :----3-----|--3-------|----6-----|--6-------|
C  :----------|----------|----------|----------|
G  :4-------4-|------4---|7-------7-|------7---|
C  :----------|----------|----------|----------|

============================================================================


D  :------------------------|----------------|
A  :------------------------|----------------|
F  :------------------------|----------------|
C  :6-----------------------|--------5--*4--*|
G  :3-----------------------|--------2--*1--*|
C  :3-----------------------|--------2--*1--*|


D  :------------------------|----------------|
A  :------------------------|----------------|
F  :------------------------|----------------|
C  :6-----------------------|--------5--*4--*|
G  :3-----------------------|--------2--*1--*|
C  :3-----------------------|--------2--*1--*|


D  :-------------4--8-------|--------7--*6--*|
A  :-----------6------------|----------------|
F  :--------5---------------|----------------|
C  :-----6------------------|----------------|
G  :7--8--------------------|----------------|
C  :------------------------|----------------|

============================================================================


D  :--------------------------------|--------------------------------|
A  :--------------------------------|--------------------------------|
F  :--------------------------------|--------------------------------|
C  :3-------------------------------|--------------------------------|
G  :0-------------------------------|--------------------------------|
C  :0-------------------------------|--------------------------------|


D  :--------------------------------|--------------------------------|
A  :--------------------------------|--------------------------------|
F  :--------------------------------|--------------------------------|
C  :3-------------------------------|--------------------------------|
G  :0-------------------------------|--------------------------------|
C  :0-------------------------------|--------------------------------|


D  :5--1-------------------------1--|5--1-------------------------1--|
A  :-----3---------------------3----|-----3---------------------3----|
F  :--------2---------------2-------|--------2---------------2-------|
C  :-----------3---------3----------|-----------3---------3----------|
G  :-------------5--4--5------------|-------------5--4--5------------|
C  :--------------------------------|--------------------------------|

============================================================================


D  :----------------|----------------|----------------|----------------|
A  :----------------|----------------|3---------------|----------------|
F  :----------------|----------------|4---------------|----------------|
C  :6---------------|--------5--*4--*|4---------------|----------------|
G  :3---------------|--------2--*1--*|2---------------|----------------|
C  :3---------------|--------2--*1--*|----------------|----------------|


D  :----------------|----------------|----------------|----------------|
A  :----------------|----------------|3---------------|----------------|
F  :----------------|----------------|4---------------|----------------|
C  :6---------------|--------5--*4--*|4---------------|----------------|
G  :3---------------|--------2--*1--*|2---------------|----------------|
C  :3---------------|--------2--*1--*|----------------|----------------|

============================================================================


D  :---------------------------------|------------------------|
A  :-9--9--9--9--9--9--9--9--9-8-8-7-|6-6-6-6-6-6-6-6-6-6-6-6-|
F  :10-10-10-10-10-10-10-10-10-9-9-8-|7-7-7-7-7-7-7-7-7-7-7-7-|
C  :10-10-10-10-10-10-10-10-10-9-9-8-|7-7-7-7-7-7-7-7-7-7-7-7-|
G  :-8--8--8--8--8--8--8--8--8-7-7-6-|5-5-5-5-5-5-5-5-5-5-5-5-|
C  :---------------------------------|------------------------|


D  :---------------------------------|------------------------|
A  :---------------------------------|------------------------|
F  :---------------------------------|------------------------|
C  :-6--6--6--6--6--6--6--6--6-5-5-4-|3-3-3-3-3-3-3-3-3-3-3-3-|
G  :-3--3--3--3--3--3--3--3--3-2-2-1-|0-0-0-0-0-0-0-0-0-0-0-0-|
C  :-3--3--3--3--3--3--3--3--3-2-2-1-|0-0-0-0-0-0-0-0-0-0-0-0-|

============================================================================


D  :---------------------------------|------------------------|
A  :-9--9--9--9--9--9--9--9--9-8-8-7-|3-3-3-3-3-3-3-3-3-3-3-3-|
F  :10-10-10-10-10-10-10-10-10-9-9-8-|4-4-4-4-4-4-4-4-4-4-4-4-|
C  :10-10-10-10-10-10-10-10-10-9-9-8-|4-4-4-4-4-4-4-4-4-4-4-4-|
G  :-8--8--8--8--8--8--8--8--8-7-7-6-|2-2-2-2-2-2-2-2-2-2-2-2-|
C  :---------------------------------|------------------------|


D  :---------------------------------|------------------------|
A  :---------------------------------|3-3-3-3-3-3-3-3-3-3-3-3-|
F  :---------------------------------|4-4-4-4-4-4-4-4-4-4-4-4-|
C  :-6--6--6--6--6--6--6--6--6-5-5-4-|4-4-4-4-4-4-4-4-4-4-4-4-|
G  :-3--3--3--3--3--3--3--3--3-2-2-1-|2-2-2-2-2-2-2-2-2-2-2-2-|
C  :-3--3--3--3--3--3--3--3--3-2-2-1-|------------------------|

============================================================================


D  :---------------------------------|------------------------|
A  :-9--9--9--9--9--9--9--9--9-8-8-7-|6-6-6-6-6-6-6-6-6-6-6-6-|
F  :10-10-10-10-10-10-10-10-10-9-9-8-|7-7-7-7-7-7-7-7-7-7-7-7-|
C  :10-10-10-10-10-10-10-10-10-9-9-8-|7-7-7-7-7-7-7-7-7-7-7-7-|
G  :-8--8--8--8--8--8--8--8--8-7-7-6-|5-5-5-5-5-5-5-5-5-5-5-5-|
C  :---------------------------------|------------------------|


D  :---------------------------------|------------------------|
A  :---------------------------------|------------------------|
F  :---------------------------------|------------------------|
C  :-6--6--6--6--6--6--6--6--6-5-5-4-|3-3-3-3-3-3-3-3-3-3-3-3-|
G  :-3--3--3--3--3--3--3--3--3-2-2-1-|0-0-0-0-0-0-0-0-0-0-0-0-|
C  :-3--3--3--3--3--3--3--3--3-2-2-1-|0-0-0-0-0-0-0-0-0-0-0-0-|

============================================================================


D  :--------------------------------------|
A  :-9-----9------9-----9-----9------9----|
F  :10----10-----10----10----10-----10----|
C  :10----10-----10----10----10-----10----|
G  :-8-----8------8-----8-----8------8----|
C  :--------------------------------------|


D  :--------------------------------------|
A  :--------------------------------------|
F  :--------------------------------------|
C  :-6-----6------6-----6-----6------6----|
G  :-3-----3------3-----3-----3------3----|
C  :-3-----3------3-----3-----3------3----|

============================================================================


D  :-----------------------------------|--------------------------------|
A  :-9-----9------9----8----8-----7----|3----3-----3----3----3-----3----|
F  :10----10-----10----9----9-----8----|4----4-----4----4----4-----4----|
C  :10----10-----10----9----9-----8----|4----4-----4----4----4-----4----|
G  :-8-----8------8----7----7-----6----|2----2-----2----2----2-----2----|
C  :-----------------------------------|--------------------------------|


D  :-----------------------------------|--------------------------------|
A  :-----------------------------------|3----3-----3----3----3-----3----|
F  :-----------------------------------|4----4-----4----4----4-----4----|
C  :-6-----6------6----5----5-----4----|4----4-----4----4----4-----4----|
G  :-3-----3------3----2----2-----1----|2----2-----2----2----2-----2----|
C  :-3-----3------3----2----2-----1----|--------------------------------|

============================================================================


D  :--------------------------------|
A  :3----3-----3----3----3-----3----|
F  :4----4-----4----4----4-----4----|
C  :4----4-----4----4----4-----4----|
G  :2----2-----2----2----2-----2----|
C  :--------------------------------|


D  :--------------------------------|
A  :3----3-----3----3----3-----3----|
F  :4----4-----4----4----4-----4----|
C  :4----4-----4----4----4-----4----|
G  :2----2-----2----2----2-----2----|
C  :--------------------------------|

============================================================================


D  :--------------------|-------------------------------------|
A  :--------------------|-------------------------------------|
F  :--10--------11------|---------------------------------7---|
C  :8----11-8-9----12-9-|----------------------------11-------|
G  :--------------------|10-10-10-10-9-9-9-9-8-8-8-8----------|
C  :--------------------|-------------------------------------|


D  :--------------------|-------------------------------------|
A  :--------------------|-------------------------------------|
F  :--10--------11------|---------------------------------7---|
C  :8----11-8-9----12-9-|----------------------------11-------|
G  :--------------------|10-10-10-10-9-9-9-9-8-8-8-8----------|
C  :--------------------|-------------------------------------|

============================================================================


D  :---------------------------|-------------------------------------|
A  :---------------------------|-6-----------------------------------|
F  :-------7-------------------|-6-----------------------------------|
C  :----11---------------------|10-----------------------------------|
G  :--9------------------------|-8-----------------------------------|
C  :9--------------------------|-8-------------------------------4---|


D  :---------------------------|-------------------------------------|
A  :---------------------------|-6-----------------------------------|
F  :-------7-------------------|-6-----------------------------------|
C  :----11---------------------|10-----------------------------------|
G  :--9------------------------|-8-----------------------------------|
C  :9--------------------------|-8-------------------------------4---|

============================================================================


D  :----------------|----------------|----------------|----------------|
A  :----------------|----------------|----------------|----------------|
F  :----------------|----------------|----------------|----------------|
C  :--------5-------|--------8-----9-|8-------5-----5-|4---------------|
G  :5---------------|5---------------|----------------|--------4-------|
C  :--8-5-8---8-5-8-|--8-5-8---8-5---|--8-5-8---8-5---|--7-4-7---7-4-7-|


D  :----------------|----------------|----------------|----------------|
A  :----------------|----------------|----------------|----------------|
F  :----------------|----------------|----------------|----------------|
C  :--------5-------|--------8-----9-|8-------5-----5-|4---------------|
G  :5---------------|5---------------|----------------|--------4-------|
C  :--8-5-8---8-5-8-|--8-5-8---8-5---|--8-5-8---8-5---|--7-4-7---7-4-7-|

============================================================================


D  :--------------------|-------------------------------|
A  :--------------------|-------------------------------|
F  :--------------------|-------------------------------|
C  :--------------------|-------------------------------|
G  :--------5-5-5-5-----|4-4-4-4------------------------|
C  :5-8-5-8---------8-5-|--------7-7-7-7-4-4-4-4-7-7-7-7|


D  :--------------------|-------------------------------|
A  :--------------------|-------------------------------|
F  :--------------------|-------------------------------|
C  :--------8-8-8-8-----|7-7-7-7------------------------|
G  :--------------------|-------------------------------|
C  :5-8-5-8---------8-5-|--------7-7-7-7-4-4-4-4-7-7-7-7|


============================================================================


D  :----------------------------|--------|-------------|
A  :----------------------------|--------|-------------|
F  :----------------------------|--------|-------------|
C  :----------------------------|--------|----8-----11-|
G  :----------------------------|--------|--5-----8----|
C  :0-0-0-0-0-0-0-0-0-0-0-0-5---|4-1-4---|5-----8------|


D  :----------------------------|--------|-------------|
A  :----------------------------|--------|-------------|
F  :----------------------------|--------|-------------|
C  :----------------------------|--------|-------------|
G  :----------------------------|--------|-------------|
C  :0-0-0-0-0-0-0-0-0-0-0-0-5---|4-1-4---|*------------|

============================================================================


D  :-------------------------------------|------------------------|
A  :-------------------------------------|------------------------|
F  :-------------------------------------|------------------------|
C  :-*-----------------------------------|--------------7---------|
G  :-------------------------------------|7-----------------------|
C  :-------------------------------------|----10---7-10---10-7-10-|


D  :------------6-10--t15--10-6----------|------------------------|
A  :---------8-------------------8-------|------------------------|
F  :------7-------------------------7----|------------------------|
C  :----8-----------------------------8--|7-----------------------|
G  :10-----------------------------------|------------------------|
C  :-------------------------------------|------------------------|


============================================================================


D  :--------------------|----------------|----------------|----------------|
A  :--------------------|----------------|----------------|----------------|
F  :--------------------|----------------|----------------|----------------|
C  :10---------7--------|--------5-------|--------8-----9-|8-------5-----5-|
G  :--------------------|5---------------|5---------------|----------------|
C  :---10-7-10---10-7---|--8-5-8---8-5-8-|--8-5-8---8-5---|--8-5-8---8-5---|


D  :--------------------|----------------|----------------|----------------|
A  :--------------------|----------------|----------------|----------------|
F  :--------------------|----------------|----------------|----------------|
C  :----------------6---|--------5-------|--------8-----9-|8-------5-----5-|
G  :--------------------|5---------------|5---------------|----------------|
C  :--------------------|--8-5-8---8-5-8-|--8-5-8---8-5---|--8-5-8---8-5---|

============================================================================


D  :----------------|-----------------------------|
A  :----------------|-----------------------------|
F  :----------------|-----------------------------|
C  :4---------------|-----------------------------|
G  :--------4-------|--------5--h6-p5--h6--p5-h6--|
C  :--7-4-7---7-4-7-|5-8-5-8----------------------|


D  :----------------|-----------------------------|
A  :----------------|-----------------------------|
F  :----------------|-----------------------------|
C  :4---------------|--------7--h8-p7--h8--p7-h8--|
G  :--------4-------|-----------------------------|
C  :--7-4-7---7-4-7-|5-8-5-8----------------------|

============================================================================


D  :------------------------------------|----------------|
A  :------------------------------------|----------------|
F  :------------------------------------|----------------|
C  :------------------------------------|5-7-8-5-7-5-4---|
G  :----4--h5-p4--h5--p4-h5--p4--h5-p4--|--------------6-|
C  :4-7---------------------------------|----------------|


D  :------------------------------------|----------------|
A  :------------------------------------|----------------|
F  :------------------------------------|----------------|
C  :----6--h7-p6--h7--p6-h7--p6--h7-p6--|5-7-8-5-7-5-4---|
G  :------------------------------------|--------------6-|
C  :4-7---------------------------------|----------------|

============================================================================


D  :-------------6-/--|-9---~----------5---|----------------|
A  :-----------8------|--------------------|----------------|
F  :-------7-8--------|--------------------|----------------|
C  :-----8------------|--------------------|----1---1-4---4-|
G  :5-10--------------|--------------------|----------------|
C  :------------------|--------------------|0-1---1-----4---|

                       + 5
D  :-------------6-/--|10/--~---------10---|----------------|
A  :-----------8------|--------------------|----------------|
F  :-------7-8--------|--------------------|----------------|
C  :-----8------------|--------------------|----5---5-7---7-|
G  :5-10--------------|--------------------|----------------|
C  :------------------|--------------------|0-5---5-----7---|

============================================================================


D  :---------------------|------------------------|------------------------|
A  :---------------------|------------------------|------------------------|
F  :---------------------|0-----------------------|----------------0-------|
C  :--5-----7-----8--7-5-|4-----------------------|----------------4-------|
G  :---------------------|------------------------|------------------------|
C  :5----7-----8---------|--------4--4-4--4--*----|4--4-4--4--*------------|


D  :---------------------|------------------------|------------------------|
A  :---------------------|------------------------|------------------------|
F  :---------------------|0-----------------------|----------------0-------|
C  :--8----10----12-10-8-|4-----------------------|----------------4-------|
G  :---------------------|------------------------|------------------------|
C  :8---10----12---------|--------4--4-4--4--*----|4--4-4--4--*------------|

============================================================================


D  :----------------------------|-------------------------------|
A  :----------------------------|-------------------------------|
F  :----------------------------|----------------5-5-5-5-4-4-4-4|
C  :----------------------------|-------------------------------|
G  :------------4-------4-------|4----4-----4-------------------|
C  :----4--4-4--4-------4-------|4----4-----4-------------------|


D  :----------------------------|-------------------------------|
A  :----------------------------|-------------------------------|
F  :----------------------------|----------------5-5-5-5-4-4-4-4|
C  :----------------------------|-------------------------------|
G  :------------4-------4-------|4----4-----4-------------------|
C  :----4--4-4--4-------4-------|4----4-----4-------------------|

============================================================================


D  :-------------------------------|-------------------------------|
A  :-------------------------------|-------------------------------|
F  :-------------------------------|5-5-5-5-4-4-4-4----------------|
C  :-------------------------------|-------------------------------|
G  :-------------------------------|-------------------------------|
C  :6-6-6-6-6-6-6-6-6-6-6-6-6-6-6-6|----------------6-6-6-6-6-6-6-6|


D  :-------------------------------|-------------------------------|
A  :-------------------------------|-------------------------------|
F  :-------------------------------|5-5-5-5-4-4-4-4----------------|
C  :-------------------------------|-------------------------------|
G  :-------------------------------|-------------------------------|
C  :6-6-6-6-6-6-6-6-6-6-6-6-6-6-6-6|----------------6-6-6-6-6-6-6-6|

============================================================================


D  :-------------------------------|-------------------------------|
A  :-------------------------------|-------------------------------|
F  :----------------5-5-5-5-4-4-4-4|-------------------------------|
C  :-------------------------------|-------------------------------|
G  :-------------------------------|-------------------------------|
C  :3-3-3-3-3-3-3-3----------------|6-6-6-6-6-6-6-6-2-2-2-2-2-2-2-2|


D  :-------------------------------|-------------------------------|
A  :-------------------------------|-------------------------------|
F  :----------------5-5-5-5-4-4-4-4|-------------------------------|
C  :-------------------------------|-------------------------------|
G  :-------------------------------|-------------------------------|
C  :3-3-3-3-3-3-3-3----------------|6-6-6-6-6-6-6-6-2-2-2-2-2-2-2-2|

============================================================================


D  :----------------|---------------------|
A  :----------------|---------------------|
F  :----------------|---------------------|
C  :----1---1-4---4-|--5-----7-----8--7-5-|
G  :----------------|---------------------|
C  :0-1---1-----4---|5----7-----8---------|


D  :----------------|---------------------|
A  :----------------|---------------------|
F  :----------------|---------------------|
C  :----5---5-7---7-|--8----10----12-10-8-|
G  :----------------|---------------------|
C  :0-5---5-----7---|8---10----12---------|

============================================================================


D  :------------------------|------------------------|
A  :------------------------|------------------------|
F  :0-----------------------|----------------0-------|
C  :4-----------------------|----------------4-------|
G  :------------------------|------------------------|
C  :--------4--4-4--4--*----|4--4-4--4--*------------|


D  :------------------------|------------------------|
A  :------------------------|------------------------|
F  :0-----------------------|----------------0-------|
C  :4-----------------------|----------------4-------|
G  :------------------------|------------------------|
C  :--------4--4-4--4--*----|4--4-4--4--*------------|

============================================================================


D  :----------------------------|------------------------|
A  :----------------------------|------------------------|
F  :----------------------------|----------------0-------|
C  :----------------------------|----------------4-------|
G  :------------4-------4-------|4----4-----4------------|
C  :----4--4-4--4-------4-------|4----4-----4------------|


D  :----------------------------|------------------------|
A  :----------------------------|------------------------|
F  :----------------------------|----------------0-------|
C  :----------------------------|----------------4-------|
G  :------------4-------4-------|4----4-----4------------|
C  :----4--4-4--4-------4-------|4----4-----4------------|

============================================================================


D  :--------------------------------|--------------------|
A  :--------------------------------|--------------------|
F  :--------------------------------|0-------------------|
C  :--------------------------------|4-------------------|
G  :--------------------------------|--------------------|
C  :4--4-4--4--*----4--4-4--4--*----|------------4--4-4--|


D  :--------------------------------|--------------------|
A  :--------------------------------|--------------------|
F  :--------------------------------|0-------------------|
C  :--------------------------------|4-------------------|
G  :--------------------------------|--------------------|
C  :4--4-4--4--*----4--4-4--4--*----|------------4--4-4--|

============================================================================


D  :------------------------------------------------|
A  :------------------------------------------------|
F  :------------------------------------------------|
C  :------------------------------------------------|
G  :4-------4-------4----4-----4----4----4-----4----|
C  :4-------4-------4----4-----4----4----4-----4----|


D  :------------------------------------------------|
A  :------------------------------------------------|
F  :------------------------------------------------|
C  :------------------------------------------------|
G  :4-------4-------4----4-----4----4----4-----4----|
C  :4-------4-------4----4-----4----4----4-----4----|

============================================================================


D  :-------------------|----------------|-------------------------------|
A  :-------------------|----------------|-------------------------------|
F  :-------------------|----------------|-------------------------------|
C  :-------------------|----------------|-------------------------------|
G  :5\-\-\-------------|----------------|5-5-5-5-3-3-3-3-5-5-5-5-6-6-6-6|
C  :-------0-0-0-0-0-0-|0-0-0-0-0-0-0-0-|-------------------------------|


D  :-------------------|----------------|-------------------------------|
A  :-------------------|----------------|-------------------------------|
F  :-------------------|----------------|-------------------------------|
C  :7\-\-\-------------|----------------|7-7-7-7-5-5-5-5-7-7-7-7-8-8-8-8|
G  :-------------------|----------------|-------------------------------|
C  :-------0-0-0-0-0-0-|0-0-0-0-0-0-0-0-|-------------------------------|

============================================================================


D  :-------------------------------------------|-------------------|
A  :-------------------------------------------|-------------------|
F  :-------------------------------------------|-------------------|
C  :-------------------------------------------|-------------------|
G  :-9--9--9--9-6-6-6-6--9--9--9--9-10-10-10-10|6\-\-\-------------|
C  :-------------------------------------------|-------1-1-1-1-1-1-|


D  :-------------------------------------------|-------------------|
A  :-------------------------------------------|-------------------|
F  :-------------------------------------------|-------------------|
C  :11-11-11-11-8-8-8-8-11-11-11-11-12-12-12-12|8\-\-\-------------|
G  :-------------------------------------------|-------------------|
C  :-------------------------------------------|-------1-1-1-1-1-1-|

============================================================================


D  :----------------|--------------------------------|
A  :----------------|--------------------------------|
F  :----------------|--------------------------------|
C  :----------------|--------------------------------|
G  :----------------|--------------------------------|
C  :1-1-1-1-1-1-1-1-|0--0-0--0--*--------------------|


D  :----------------|--------------------------------|
A  :----------------|--------------------------------|
F  :----------------|--------------------------------|
C  :----------------|--------------------------------|
G  :----------------|--------------------------------|
C  :1-1-1-1-1-1-1-1-|*---------------0--0-0--0--*----|

============================================================================


D  :---------------------------------------------|-------------------|
A  :3--h4-p3--h4--p3-h4--7--h-8-p7--h-8--p7-h-8--|-------------------|
F  :---------------------------------------------|-------------------|
C  :---------------------------------------------|-------------------|
G  :---------------------------------------------|5\-\-\-------------|
C  :---------------------------------------------|-------0-0-0-0-0-0-|


D  :5--h6-p5--h6--p5-h6--9--h10-p9--h10--p9-h10--|-------------------|
A  :---------------------------------------------|-------------------|
F  :---------------------------------------------|-------------------|
C  :---------------------------------------------|7\-\-\-------------|
G  :---------------------------------------------|-------------------|
C  :---------------------------------------------|-------0-0-0-0-0-0-|

============================================================================


D  :----------------|-------------------------------|
A  :----------------|-------------------------------|
F  :----------------|-------------------------------|
C  :----------------|-------------------------------|
G  :----------------|5-5-5-5-3-3-3-3-5-5-5-5-6-6-6-6|
C  :0-0-0-0-0-0-0-0-|-------------------------------|


D  :----------------|-------------------------------|
A  :----------------|-------------------------------|
F  :----------------|-------------------------------|
C  :----------------|7-7-7-7-5-5-5-5-7-7-7-7-8-8-8-8|
G  :----------------|-------------------------------|
C  :0-0-0-0-0-0-0-0-|-------------------------------|

============================================================================


D  :-------------------------------------------|-------------------|
A  :-------------------------------------------|-------------------|
F  :-------------------------------------------|-------------------|
C  :-------------------------------------------|-------------------|
G  :-9--9--9--9-6-6-6-6--9--9--9--9-10-10-10-10|6\-\-\-------------|
C  :-------------------------------------------|-------1-1-1-1-1-1-|


D  :-------------------------------------------|-------------------|
A  :-------------------------------------------|-------------------|
F  :-------------------------------------------|-------------------|
C  :11-11-11-11-8-8-8-8-11-11-11-11-12-12-12-12|8\-\-\-------------|
G  :-------------------------------------------|-------------------|
C  :-------------------------------------------|-------1-1-1-1-1-1-|

============================================================================


D  :----------------|--------------------------------|
A  :----------------|--------------------------------|
F  :----------------|--------------------------------|
C  :----------------|--------------------------------|
G  :----------------|--------------------------------|
C  :1-1-1-1-1-1-1-1-|0--0-0--0--*--------------------|


D  :----------------|--------------------------------|
A  :----------------|--------------------------------|
F  :----------------|--------------------------------|
C  :----------------|--------------------------------|
G  :----------------|--------------------------------|
C  :1-1-1-1-1-1-1-1-|*---------------0--0-0--0--*----|

============================================================================


D  :-------------------------------|
A  :-------------------------------|
F  :-------------------------------|
C  :-------------------------------|
G  :5-5-5-5-3-3-3-3-5-5-5-5-6-6-6-6|
C  :-------------------------------|


D  :-------------------------------|
A  :-------------------------------|
F  :-------------------------------|
C  :7-7-7-7-5-5-5-5-7-7-7-7-8-8-8-8|
G  :-------------------------------|
C  :-------------------------------|

============================================================================


D  :--------------------------|--------------------|
A  :--------------------------|--------------------|
F  :--------------------------|--------------------|
C  :--------------------------|--------------------|
G  :5\-\-\--------------------|--------------------|
C  :-------0-0-0--0-0-----0---|-0-0--0--0--0-0-0-0-|


D  :--------------------------|--------------------|
A  :--------------------------|--------------------|
F  :--------------------------|--------------------|
C  :7\-\-\--------------------|--------------------|
G  :--------------------------|--------------------|
C  :-------0-0-0--0-0-----0---|-0-0--0--0--0-0-0-0-|

   + 2
D  :8b-----------r------------|--------------------|
A  :-------------------11-----|10------------------|
F  :--------------------------|-----12-11-~--------|
C  :--------------------------|--------------------|
G  :--------------------------|--------------------|
C  :--------------------------|--------------------|

============================================================================


D  :---------------------------------|
A  :---------------------------------|
F  :---------------------------------|
C  :---------------------------------|
G  :5--5--5-5-3-3-3-3-5-5-5-5-6-6-6-6|
C  :---------------------------------|


D  :---------------------------------|
A  :---------------------------------|
F  :---------------------------------|
C  :7--7--7-7-5-5-5-5-7-7-7-7-8-8-8-8|
G  :---------------------------------|
C  :---------------------------------|


D  :---------------------------------|
A  :---------------------------------|
F  :7-h8-p7---5---7---5--------------|
C  :----------------------8---7---4--|
G  :---------------------------------|
C  :---------------------------------|

============================================================================


D  :--------------------------------------------------------------|
A  :--------------------------------------------------------------|
F  :--------------------------------------------------------------|
C  :--------------------------------------------------------------|
G  :-9--9----9----9-6-6---6---6--9--9----9-----9-10-10---10----10-|
C  :--------------------------------------------------------------|


D  :--------------------------------------------------------------|
A  :--------------------------------------------------------------|
F  :--------------------------------------------------------------|
C  :11-11---11---11-8-8---8---8-11-11---11----11-12-12---12----12-|
G  :--------------------------------------------------------------|
C  :--------------------------------------------------------------|


D  :----------------------------------------------6----8----10----|
A  :-----------------------------7----8----10---------------------|
F  :----------------5---7---8-------------------------------------|
C  :-5----7----8--------------------------------------------------|
G  :--------------------------------------------------------------|
C  :--------------------------------------------------------------|

============================================================================


D  :------------------------|------------------------------|
A  :------------------------|------------------------------|
F  :------------------------|------------------------------|
C  :------------------------|------------------------------|
G  :--6\-\-\----------------|------------------------------|
C  :---------1--1--1-1-1--1-|-1--1--1--1--1-1--1-----1-----|


D  :------------------------|------------------------------|
A  :------------------------|------------------------------|
F  :------------------------|------------------------------|
C  :--8\-\-\----------------|------------------------------|
G  :------------------------|------------------------------|
C  :---------1--1--1-1-1--1-|-1--1--1--1--1-1--1-----1-----|


D  :/17--------b--r------b--|r--b--r--b-r--*--14--15---17--|
A  :------------------------|------------------------------|
F  :------------------------|------------------------------|
C  :------------------------|------------------------------|
G  :------------------------|------------------------------|
C  :------------------------|------------------------------|

============================================================================


D  :---------------------------------------------|
A  :---------------------------------------------|
F  :---------------------------------------------|
C  :---------------------------------------------|
G  :---------------------------------------------|
C  :--0---0--0---0---*---------------------------|


D  :---------------------------------------------|
A  :---------------------------------------------|
F  :---------------------------------------------|
C  :---------------------------------------------|
G  :---------------------------------------------|
C  :--*---------------------0---0--0---0---*-----|


D  :t18--17-15--14--15-17-t22--17-15--14--15-17--|
A  :---------------------------------------------|
F  :---------------------------------------------|
C  :---------------------------------------------|
G  :---------------------------------------------|
C  :---------------------------------------------|

============================================================================


D  :---------------------------------------------------|
A  :--3-h-4-p-3-h-4-p-3-h-4---7-h-8-p-7-h-8-p7----h-8--|
F  :---------------------------------------------------|
C  :---------------------------------------------------|
G  :---------------------------------------------------|
C  :---------------------------------------------------|


D  :--5-h-6-p-5-h-6-p-5-h-6---9-h10-p-9-h10-p9----h10--|
A  :---------------------------------------------------|
F  :---------------------------------------------------|
C  :---------------------------------------------------|
G  :---------------------------------------------------|
C  :---------------------------------------------------|


D  :t18--17--15--14--15--17-t22--17--15--14------------|
A  :-------------------------------------------16------|
F  :---------------------------------------------------|
C  :---------------------------------------------------|
G  :---------------------------------------------------|
C  :---------------------------------------------------|

============================================================================


D  :-----------------------|---------------------|
A  :-----------------------|---------------------|
F  :-----------------------|---------------------|
C  :-----------------------|---------------------|
G  :-5\-\-\----------------|---------------------|
C  :--------0-0-0-0--0--0--|0--0-0--0--0-0--0--0-|


D  :-----------------------|---------------------|
A  :-----------------------|---------------------|
F  :-----------------------|---------------------|
C  :-7\-\-\----------------|---------------------|
G  :-----------------------|---------------------|
C  :--------0-0-0-0--0--0--|0--0-0--0--0-0--0--0-|

                      +1
D  :----------------10b--^-|--10-8-10----8-------|
A  :15-----------*---------|----------11---10-11-|
F  :-----------------------|---------------------|
C  :-----------------------|---------------------|
G  :-----------------------|---------------------|
C  :-----------------------|---------------------|

============================================================================


D  :-----------------------------------------|
A  :-----------------------------------------|
F  :-----------------------------------------|
C  :-----------------------------------------|
G  :-5-5--5-5--3-3--3-3-5-5-5----5-6-6---6-6-|
C  :-----------------------------------------|


D  :-----------------------------------------|
A  :-----------------------------------------|
F  :-----------------------------------------|
C  :-7-7--7-7--5-5--5-5-7-7-7----7-8-8---8-8-|
G  :-----------------------------------------|
C  :-----------------------------------------|


D  :-----------------------------------------|
A  :-----10----------------------------------|
F  :12--------11---12---8-----11-------8-----|
C  :-----------------------------------------|
G  :-----------------------------------------|
C  :-----------------------------------------|

============================================================================


D  :-------------------------------------------|
A  :-------------------------------------------|
F  :-------------------------------------------|
C  :-------------------------------------------|
G  :-9--9--9--9-6-6-6-6--9--9--9--9-10-10-10-10|
C  :-------------------------------------------|


D  :-------------------------------------------|
A  :-------------------------------------------|
F  :-------------------------------------------|
C  :11-11-11-11-8-8-8-8-11-11-11-11-12-12-12-12|
G  :-------------------------------------------|
C  :-------------------------------------------|


D  :-------------------------------------------|
A  :-------------------------------------------|
F  :-7---~-------------------------------------|
C  :-------------------------------------------|
G  :-------------------------------------------|
C  :-------------------------------------------|

============================================================================


D  :--------------------------------------------------------|
A  :--------------------------------------------------------|
F  :--------------------------------------------------------|
C  :--------------------------------------------------------|
G  :6-\----\---\--------------------------------------------|
C  :---------------1-----1-------1-----1------1-----1-------|


D  :--------------------------------------------------------|
A  :--------------------------------------------------------|
F  :--------------------------------------------------------|
C  :8-\----\---\--------------------------------------------|
G  :--------------------------------------------------------|
C  :---------------1-----1-------1-----1------1-----1-------|


D  :------------------11---14--t17--14---11-----------------|
A  :--------------13-------------------------13-------------|
F  :8---/11--14----------------------------------14---(11)--|
C  :--------------------------------------------------------|
G  :--------------------------------------------------------|
C  :--------------------------------------------------------|

============================================================================


D  :-----------------------------------------------------|
A  :-----------------------------------------------------|
F  :-----------------------------------------------------|
C  :-----------------------------------------------------|
G  :-----------------------------------------------------|
C  :-1-----1------1-----1-------1-----1------1-----1-----|


D  :-----------------------------------------------------|
A  :-----------------------------------------------------|
F  :-----------------------------------------------------|
C  :-----------------------------------------------------|
G  :-----------------------------------------------------|
C  :-1-----1------1-----1-------1-----1------1-----1-----|


D  :-----------------14---17--t20--17---14---------------|
A  :-------------16-------------------------16-----------|
F  :11--14---17---------------------------------17---14--|
C  :-----------------------------------------------------|
G  :-----------------------------------------------------|
C  :-----------------------------------------------------|

============================================================================


D  :------------------------------------|---------------------------------|
A  :------------------------------------|---------------------------------|
F  :------------------------------------|---------------------------------|
C  :------------------------------------|---------------------------------|
G  :------------------------------------|5-5-5-5-3-3-3-3-5-5--5-5-6-6-6-6-|
C  :-0---0-0--0--*----------------------|---------------------------------|


D  :------------------------------------|---------------------------------|
A  :------------------------------------|---------------------------------|
F  :------------------------------------|---------------------------------|
C  :------------------------------------|7-7-7-7-5-5-5-5-7-7--7-7-8-8-8-8-|
G  :------------------------------------|---------------------------------|
C  :-*-----------------0---0-0--0--*----|---------------------------------|


D  :20b---------------r-b---------------|--------------------r------------|
A  :------------------------------------|---------------------------------|
F  :------------------------------------|---------------------------------|
C  :------------------------------------|---------------------------------|
G  :------------------------------------|---------------------------------|
C  :------------------------------------|---------------------------------|

============================================================================


D  :-----------------|------------------|-----------------|
A  :-----------------|------------------|-----------------|
F  :-----------------|0-----------------|-----------------|
C  :------------3----|------3-----------|------------3----|
G  :*-----5----------|--------------5---|------5----------|
C  :5----------------|------------------|5----------------|


D  :-----------------|------------------|-----------------|
A  :-----------------|------------------|-----------------|
F  :-----------------|0-----------------|-----------------|
C  :*-----------3----|------3-----------|------------3----|
G  :------5----------|--------------5---|------5----------|
C  :5----------------|------------------|5----------------|


D  :*----------------|------------------|-----------------|
A  :-----------------|------------------|-----------------|
F  :-----------------|------------------|-----------------|
C  :------------5-h6-|5---------w--~----|---------------s-|
G  :-----------------|------------------|-----------------|
C  :-----------------|------------------|-----------------|

============================================================================


D  :---------------------|------------------|------------------|
A  :---------------------|------------------|4-----------------|
F  :--0------------------|-------------0----|-------0----------|
C  :----------3----------|-------6----------|--------------6---|
G  :-----------------5---|------------------|------------------|
C  :---------------------|-6----------------|------------------|


D  :---------------------|------------------|------------------|
A  :---------------------|------------------|4-----------------|
F  :--0------------------|-------------0----|-------0----------|
C  :----------3----------|-------6----------|--------------6---|
G  :-----------------5---|------------------|------------------|
C  :---------------------|-6----------------|------------------|


D  :---------------------|------------------|------------------|
A  :---------------------|------------------|------------------|
F  :---------------------|------------------|------------------|
C  :/10-------------12---|13-----9--------w-|-~----------------|
G  :---------------------|------------------|-------------11---|
C  :---------------------|------------------|------------------|

============================================================================


D  :-----------------------------|----------------|---------------------|
A  :-----------------------------|4---------------|---------------------|
F  :----------------------0------|------0---------|---------------------|
C  :----------6------------------|------------6---|---------------3-----|
G  :-----------------------------|----------------|-------5-------------|
C  :6----------------------------|----------------|5--------------------|


D  :-----------------------------|----------------|---------------------|
A  :-----------------------------|4---------------|---------------------|
F  :----------------------0------|------0---------|---------------------|
C  :----------6------------------|------------6---|---------------3-----|
G  :-----------------------------|----------------|-------5-------------|
C  :6----------------------------|----------------|5--------------------|


D  :-----------------------------|----------------|---------------------|
A  :-----------------------------|----------------|-----9-----w-r--w-r--|
F  :-----------------------------|----------------|----12-----w-r--w-r--|
C  :-----------------------------|----------------|---------------------|
G  :---w-\-\-\-\-\-\-\-\-\-\-\-\-|-*--------------|---------------------|
C  :-----------------------------|----------------|---------------------|

============================================================================


D  :------------------|-------------------------|------------------|
A  :------------------|-------------------------|------------------|
F  :-0----------------|-------------------------|0-----------------|
C  :--------3---------|-------------------3-----|------3-----------|
G  :--------------5---|---------5---------------|-------------5----|
C  :------------------|5------------------------|------------------|


D  :------------------|-------------------------|------------------|
A  :------------------|-------------------------|------------------|
F  :-0----------------|-------------------------|0-----------------|
C  :--------3---------|-------------------3-----|------3-----------|
G  :--------------5---|---------5---------------|-------------5----|
C  :------------------|5------------------------|------------------|

                                                             + 1
D  :------------------|-------------------------|------------------|
A  :w-r--*------------|-----13----w-r--w-r--w-r-|-*----------------|
F  :w-r---------------|----(16)---w-r--w-r--w-r-|------------12/---|
C  :------------------|-------------------------|------------------|
G  :------------------|-------------------------|------------------|
C  :------------------|-------------------------|------------------|

============================================================================


D  :---------------------|--------------------------------------|
A  :---------------------|-4------------------------------------|
F  :-----------------0---|------------------0-------------------|
C  :---------6-----------|------------------------------6-------|
G  :---------------------|--------------------------------------|
C  :6--------------------|--------------------------------------|


D  :---------------------|--------------------------------------|
A  :---------------------|-4------------------------------------|
F  :-----------------0---|------------------0-------------------|
C  :---------6-----------|------------------------------6-------|
G  :---------------------|--------------------------------------|
C  :6--------------------|--------------------------------------|


D  :---------------------|---------------------------------6----|
A  :---------------------|---------------------------9----------|
F  :--12-10--------------|----------------------8---------------|
C  :--------13-12-10-9---|----------------9---------------------|
G  :---------------------|10---/-(11)---------------------------|
C  :---------------------|--------------------------------------|

============================================================================


D  :--------------------|---------------------|----------------|
A  :--------------------|--4------------------|----------------|
F  :----------------0---|----------0----------|----------------|
C  :----------6---------|-----------------6---|------------6---|
G  :--------------------|---------------------|------3---------|
C  :-6------------------|---------------------|3---------------|


D  :--------------------|---------------------|----------------|
A  :--------------------|--4------------------|----------------|
F  :----------------0---|----------0----------|----------------|
C  :----------6---------|-----------------6---|------------6---|
G  :--------------------|---------------------|------3---------|
C  :-6------------------|---------------------|3---------------|

    + 7
D  :s-/----------*------|---------------------|----------------|
A  :--------------------|---------------------|----------------|
F  :--------------------|/12----b-r--10-----*-|----------------|
C  :--------------------|---------------------|----------------|
G  :--------------------|---------------------|----------------|
C  :--------------------|---------------------|----------------|

============================================================================


D  :-----------------|--------------------|----------------------|
A  :-----------------|--------------------|----------------------|
F  :0----------------|--------------------|-0--------------------|
C  :------6----------|----------------6---|---------6------------|
G  :------------3----|---------3----------|-----------------3----|
C  :-----------------|--3-----------------|----------------------|


D  :-----------------|--------------------|----------------------|
A  :-----------------|--------------------|----------------------|
F  :0----------------|--------------------|-0--------------------|
C  :------6----------|----------------6---|---------6------------|
G  :------------3----|---------3----------|-----------------3----|
C  :-----------------|--3-----------------|----------------------|


D  :--------------11-|h13-----10-----11---|----------------------|
A  :-----------------|--------------------|12--------------------|
F  :-----------------|--------------------|------w-13----w-12--w-|
C  :-----------------|--------------------|----------------------|
G  :-----------------|--------------------|----------------------|
C  :-----------------|--------------------|----------------------|

============================================================================


D  :----------------------|------------------------|
A  :----------------------|------------------------|
F  :----------------------|0-----------------------|
C  :-----------------9----|-----------9------------|
G  :---------6------------|-------------------6----|
C  :-6--------------------|------------------------|


D  :----------------------|------------------------|
A  :----------------------|------------------------|
F  :----------------------|0-----------------------|
C  :-----------------9----|-----------9------------|
G  :---------6------------|-------------------6----|
C  :-6--------------------|------------------------|


D  :----------------------|------------------------|
A  :----------------------|------------------------|
F  :10----w-12----w-13--w-|8-w-r-w-r-\6----w-\4--s-|
C  :----------------------|------------------------|
G  :----------------------|------------------------|
C  :----------------------|------------------------|

============================================================================


D  :------------------------|----------------------------------------------|
A  :------------------------|----------------------------------------------|
F  :------------------------|0---------------------------------------------|
C  :--------------------9---|-----------------9----------------------------|
G  :--------------6---------|------------------------------------6---------|
C  :-6----------------------|----------------------------------------------|


D  :------------------------|----------------------------------------------|
A  :------------------------|----------------------------------------------|
F  :------------------------|0---------------------------------------------|
C  :--------------------9---|-----------------9----------------------------|
G  :--------------6---------|------------------------------------6---------|
C  :-6----------------------|----------------------------------------------|


D  :------------------------|----------------------------------------------|
A  :------------------------|-----------------------------------16--18-20--|
F  :/--10-w-r-w-r---8-----*-|----------10--12---13--/16--17-19-------------|
C  :------------------------|9--10-12--------------------------------------|
G  :------------------------|----------------------------------------------|
C  :------------------------|----------------------------------------------|

============================================================================


D  :----------------------------------|--------------------------------|
A  :----------------------------------|--------------------------------|
F  :(-0)-----------(0)----------------|(0)---------(0)-----------------|
C  :--5-------------5-----------------|-5-----------5------------------|
G  :--8----5--5--*--8-----5--5-*-5--*-|-8----5-5-*--8----5-5-*-5-*-5-*-|
C  :-------5--5--*--------5--5-*-5--*-|------5-5-*-------5-5-*-5-*-5-*-|


D  :----------------------------------|--------------------------------|
A  :----------------------------------|--------------------------------|
F  :(-0)-----------(0)----------------|(0)---------(0)-----------------|
C  :--5-------------5-----------------|-5-----------5------------------|
G  :--5----5--5--*--5-----5--5-*-5--*-|-5----5-5-*--5----5-5-*-5-*-5-*-|
C  :-------5--5--*--------5--5-*-5--*-|------5-5-*-------5-5-*-5-*-5-*-|


D  :-19------b--r--------b--r------b--|r-----*-------------------------|
A  :----------------------------------|--------------------------------|
F  :----------------------------------|--------------------------------|
C  :----------------------------------|--------------------------------|
G  :----------------------------------|--------------------------------|
C  :----------------------------------|--------------------------------|

============================================================================


D  :----------------------------|--------------------------------|
A  :----------------------------|--------------------------------|
F  :(0)---------(0)-------------|(0)---------(0)-----------------|
C  :-6-----------6--------------|-6-----------6------------------|
G  :-6----6-6-*--6----6-6-*-6-*-|-6----6-6-*--6----6-6-*-6-*-6-*-|
C  :------6-6-*-------6-6-*-6-*-|------6-6-*-------6-6-*-6-*-6-*-|


D  :----------------------------|--------------------------------|
A  :----------------------------|--------------------------------|
F  :(0)---------(0)-------------|(0)---------(0)-----------------|
C  :-6-----------6--------------|-6-----------6------------------|
G  :-6----6-6-*--6----6-6-*-6-*-|-6----6-6-*--6----6-6-*-6-*-6-*-|
C  :------6-6-*-------6-6-*-6-*-|------6-6-*-------6-6-*-6-*-6-*-|

============================================================================


D  :----------------------------|--------------------------------|
A  :----------------------------|--------------------------------|
F  :(0)---------(0)-------------|(0)---------(0)-----------------|
C  :-5-----------5--------------|-5-----------5------------------|
G  :-8----5-5-*--8----5-5-*-5-*-|-8----5-5-*--8----5-5-*-5-*-5-*-|
C  :------5-5-*-------5-5-*-5-*-|------5-5-*-------5-5-*-5-*-5-*-|


D  :----------------------------|--------------------------------|
A  :----------------------------|--------------------------------|
F  :(0)---------(0)-------------|(0)---------(0)-----------------|
C  :-5-----------5--------------|-5-----------5------------------|
G  :-5----5-5-*--5----5-5-*-5-*-|-5----5-5-*--5----5-5-*-5-*-5-*-|
C  :------5-5-*-------5-5-*-5-*-|------5-5-*-------5-5-*-5-*-5-*-|

============================================================================


D  :----------------------------|--------------------------------|
A  :----------------------------|--------------------------------|
F  :(0)---------(0)-------------|(0)---------(0)-----------------|
C  :-6-----------6--------------|-6-----------6------------------|
G  :-6----6-6-*--6----6-6-*-6-*-|-6----6-6-*--6----6-6-*-6-*-6-*-|
C  :------6-6-*-------6-6-*-6-*-|------6-6-*-------6-6-*-6-*-6-*-|


D  :----------------------------|--------------------------------|
A  :----------------------------|--------------------------------|
F  :(0)---------(0)-------------|(0)---------(0)-----------------|
C  :-6-----------6--------------|-6-----------6------------------|
G  :-6----6-6-*--6----6-6-*-6-*-|-6----6-6-*--6----6-6-*-6-*-6-*-|
C  :------6-6-*-------6-6-*-6-*-|------6-6-*-------6-6-*-6-*-6-*-|

============================================================================


D  :------------|
A  :------------|
F  :------------|
C  :3-6-3-------|
G  :------5-----|
C  :--------6-3-|


D  :------------|
A  :------------|
F  :------------|
C  :3-6-3-------|
G  :------5-----|
C  :--------6-3-|

============================================================================


D  :---------------------------------------------------------------|
A  :---------------------------------------------------------------|
F  :---------------------------------------------------------------|
C  :6-6-6-6-5-5-5-5---------------------------------6-6-6-6-5-5-5-5|
G  :---------------------------------------------------------------|
C  :----------------3-3-3-3-3-3-3-3-3-3-3-3-3-3-3-3----------------|


D  :---------------------------------------------------------------|
A  :---------------------------------------------------------------|
F  :------------------------------------------------5-5-5-5-4-4-4-4|
C  :6-6-6-6-5-5-5-5------------------------------------------------|
G  :---------------------------------------------------------------|
C  :----------------3-3-3-3-3-3-3-3-3-3-3-3-3-3-3-3----------------|

============================================================================


D  :-------------------------------------------------|
A  :-------------------------------------------------|
F  :----------------------------------------5--7--8--|
C  :--------------------------------3--5-6-----------|
G  :-------------------------------------------------|
C  :3-3-3-3-3-3-3-3-3-3-3-3-3-3-3-3------------------|


D  :-------------------------------------------------|
A  :-------------------------------------------------|
F  :-------------------------------------------------|
C  :----------------------------------------6--9-10--|
G  :--------------------------------5--6-8-----------|
C  :3-3-3-3-3-3-3-3-3-3-3-3-3-3-3-3------------------|

============================================================================


D  :----------------------------|--------------------------------|
A  :(3)-------------------------|--------------------------------|
F  :-0----------(0)-------------|(0)---------(0)-----------------|
C  :-5-----------5--------------|-5-----------5------------------|
G  :-8----5-5-*--8----5-5-*-5-*-|-8----5-5-*--8----5-5-*-5-*-5-*-|
C  :------5-5-*-------5-5-*-5-*-|------5-5-*-------5-5-*-5-*-5-*-|


D  :----------------------------|--------------------------------|
A  :(0)-------------------------|--------------------------------|
F  :-0----------(0)-------------|(0)---------(0)-----------------|
C  :-5-----------5--------------|-5-----------5------------------|
G  :-5----5-5-*--5----5-5-*-5-*-|-5----5-5-*--5----5-5-*-5-*-5-*-|
C  :------5-5-*-------5-5-*-5-*-|------5-5-*-------5-5-*-5-*-5-*-|

============================================================================


D  :----------------------------|--------------------------------|
A  :----------------------------|--------------------------------|
F  :(0)---------(0)-------------|(0)---------(0)-----------------|
C  :-6-----------6--------------|-6-----------6------------------|
G  :-6----6-6-*--6----6-6-*-6-*-|-6----6-6-*--6----6-6-*-6-*-6-*-|
C  :------6-6-*-------6-6-*-6-*-|------6-6-*-------6-6-*-6-*-6-*-|


D  :----------------------------|--------------------------------|
A  :----------------------------|--------------------------------|
F  :(0)---------(0)-------------|(0)---------(0)-----------------|
C  :-6-----------6--------------|-6-----------6------------------|
G  :-6----6-6-*--6----6-6-*-6-*-|-6----6-6-*--6----6-6-*-6-*-6-*-|
C  :------6-6-*-------6-6-*-6-*-|------6-6-*-------6-6-*-6-*-6-*-|

============================================================================


D  :----------------------------|--------------------------------|
A  :----------------------------|--------------------------------|
F  :(0)---------(0)-------------|(0)---------(0)-----------------|
C  :-5-----------5--------------|-5-----------5------------------|
G  :-8----5-5-*--8----5-5-*-5-*-|-8----5-5-*--8----5-5-*-5-*-5-*-|
C  :------5-5-*-------5-5-*-5-*-|------5-5-*-------5-5-*-5-*-5-*-|


D  :----------------------------|--------------------------------|
A  :----------------------------|--------------------------------|
F  :(0)---------(0)-------------|(0)---------(0)-----------------|
C  :-5-----------5--------------|-5-----------5------------------|
G  :-5----5-5-*--5----5-5-*-5-*-|-5----5-5-*--5----5-5-*-5-*-5-*-|
C  :------5-5-*-------5-5-*-5-*-|------5-5-*-------5-5-*-5-*-5-*-|

============================================================================


D  :----------------------------|--------------------------------|
A  :----------------------------|--------------------------------|
F  :(0)---------(0)-------------|(0)---------(0)-----------------|
C  :-6-----------6--------------|-6-----------6------------------|
G  :-6----6-6-*--6----6-6-*-6-*-|-6----6-6-*--6----6-6-*-6-*-6-*-|
C  :------6-6-*-------6-6-*-6-*-|------6-6-*-------6-6-*-6-*-6-*-|


D  :----------------------------|--------------------------------|
A  :----------------------------|--------------------------------|
F  :(0)---------(0)-------------|(0)---------(0)-----------------|
C  :-6-----------6--------------|-6-----------6------------------|
G  :-6----6-6-*--6----6-6-*-6-*-|-6----6-6-*--6----6-6-*-6-*-6-*-|
C  :------6-6-*-------6-6-*-6-*-|------6-6-*-------6-6-*-6-*-6-*-|

============================================================================


D  :------------|
A  :------------|
F  :------------|
C  :3-6-3-------|
G  :------5-----|
C  :--------6-3-|


D  :------------|
A  :------------|
F  :------------|
C  :3-6-3-------|
G  :------5-----|
C  :--------6-3-|

============================================================================


D  :---------------------------------------------------------------|
A  :---------------------------------------------------------------|
F  :---------------------------------------------------------------|
C  :6-6-6-6-5-5-5-5---------------------------------6-6-6-6-5-5-5-5|
G  :---------------------------------------------------------------|
C  :----------------3-3-3-3-3-3-3-3-3-3-3-3-3-3-3-3----------------|


D  :---------------------------------------------------------------|
A  :---------------------------------------------------------------|
F  :------------------------------------------------5-5-5-5-4-4-4-4|
C  :6-6-6-6-5-5-5-5------------------------------------------------|
G  :---------------------------------------------------------------|
C  :----------------3-3-3-3-3-3-3-3-3-3-3-3-3-3-3-3----------------|

============================================================================


D  :-------------------------------------------------|
A  :-------------------------------------------------|
F  :----------------------------------------5--7--8--|
C  :--------------------------------3--5-6-----------|
G  :-------------------------------------------------|
C  :3-3-3-3-3-3-3-3-3-3-3-3-3-3-3-3------------------|


D  :-------------------------------------------------|
A  :-------------------------------------------------|
F  :-------------------------------------------------|
C  :----------------------------------------6--9-10--|
G  :--------------------------------5--6-8-----------|
C  :3-3-3-3-3-3-3-3-3-3-3-3-3-3-3-3------------------|

============================================================================


D  :--------------------------|----------------------------|
A  :(3)-----------------------|----------------------------|
F  :-0----------0-------------|0---------0-----------------|
C  :-6----------6-------------|6---------6-----------------|
G  :------5-5-*-----5-5-*-5-*-|----5-5-*-----5-5-*-5-*-5-*-|
C  :------5-5-*-----5-5-*-5-*-|----5-5-*-----5-5-*-5-*-5-*-|


D  :--------------------------|----------------------------|
A  :(0)-----------------------|----------------------------|
F  :-0----------0-------------|0---------0-----------------|
C  :-6----------6-------------|6---------6-----------------|
G  :------5-5-*-----5-5-*-5-*-|----5-5-*-----5-5-*-5-*-5-*-|
C  :------5-5-*-----5-5-*-5-*-|----5-5-*-----5-5-*-5-*-5-*-|

============================================================================


D  :------------------------|----------------------------|
A  :------------------------|----------------------------|
F  :0---------0-------------|0---------0-----------------|
C  :6---------6-------------|6---------6-----------------|
G  :----6-6-*-----6-6-*-6-*-|----6-6-*-----6-6-*-6-*-6-*-|
C  :----6-6-*-----6-6-*-6-*-|----6-6-*-----6-6-*-6-*-6-*-|


D  :------------------------|----------------------------|
A  :------------------------|----------------------------|
F  :0---------0-------------|0---------0-----------------|
C  :6---------6-------------|6---------6-----------------|
G  :----6-6-*-----6-6-*-6-*-|----6-6-*-----6-6-*-6-*-6-*-|
C  :----6-6-*-----6-6-*-6-*-|----6-6-*-----6-6-*-6-*-6-*-|

============================================================================


D  :------------------------|----------------------------|
A  :------------------------|----------------------------|
F  :0---------0-------------|0---------0-----------------|
C  :6---------6-------------|6---------6-----------------|
G  :----5-5-*-----5-5-*-5-*-|----5-5-*-----5-5-*-5-*-5-*-|
C  :----5-5-*-----5-5-*-5-*-|----5-5-*-----5-5-*-5-*-5-*-|


D  :------------------------|----------------------------|
A  :------------------------|----------------------------|
F  :0---------0-------------|0---------0-----------------|
C  :6---------6-------------|6---------6-----------------|
G  :----5-5-*-----5-5-*-5-*-|----5-5-*-----5-5-*-5-*-5-*-|
C  :----5-5-*-----5-5-*-5-*-|----5-5-*-----5-5-*-5-*-5-*-|

============================================================================


D  :------------------------|----------------------------|
A  :------------------------|----------------------------|
F  :0---------0-------------|0---------0-----------------|
C  :6---------6-------------|6---------6-----------------|
G  :----6-6-*-----6-6-*-6-*-|----6-6-*-----6-6-*-6-*-6-*-|
C  :----6-6-*-----6-6-*-6-*-|----6-6-*-----6-6-*-6-*-6-*-|


D  :------------------------|----------------------------|
A  :------------------------|----------------------------|
F  :0---------0-------------|0---------0-----------------|
C  :6---------6-------------|6---------6-----------------|
G  :----6-6-*-----6-6-*-6-*-|----6-6-*-----6-6-*-6-*-6-*-|
C  :----6-6-*-----6-6-*-6-*-|----6-6-*-----6-6-*-6-*-6-*-|

============================================================================


D  :-------------------------------|-------------------------------|
A  :-------------------------------|-------------------------------|
F  :-------------------------------|-------------------------------|
C  :6-6-6-6-5-5-5-5----------------|----------------6-6-6-6-5-5-5-5|
G  :-------------------------------|-------------------------------|
C  :----------------3-3-3-3-3-3-3-3|3-3-3-3-3-3-3-3----------------|


D  :-------------------------------|-------------------------------|
A  :-------------------------------|-------------------------------|
F  :-------------------------------|----------------5-5-5-5-4-4-4-4|
C  :6-6-6-6-5-5-5-5----------------|-------------------------------|
G  :-------------------------------|-------------------------------|
C  :----------------3-3-3-3-3-3-3-3|3-3-3-3-3-3-3-3----------------|

============================================================================


D  :-------------------------------|
A  :-------------------------------|
F  :-------------------------------|
C  :-------------------------------|
G  :-------------------------------|
C  :3-3-3-3-3-3-3-3-3-3-3-3-3-3-3-3|


D  :-------------------------------|
A  :-------------------------------|
F  :-------------------------------|
C  :-------------------------------|
G  :-------------------------------|
C  :3-3-3-3-3-3-3-3-3-3-3-3-3-3-3-3|

============================================================================


D  :-----------------------------------------------|
A  :-----------------------------------------------|
F  :5-5-5-5-4-4-4-4--------------------------------|
C  :-----------------------------------------------|
G  :-----------------------------------------------|
C  :----------------6-6-6-6-6-6-6-6-6-6-6-6-6-6-6-6|


D  :-----------------------------------------------|
A  :-----------------------------------------------|
F  :5-5-5-5-4-4-4-4--------------------------------|
C  :-----------------------------------------------|
G  :-----------------------------------------------|
C  :----------------6-6-6-6-6-6-6-6-6-6-6-6-6-6-6-6|

============================================================================


D  :-------------------------------|---------------|
A  :-------------------------------|---------------|
F  :5-5-5-5-4-4-4-4----------------|---------------|
C  :-------------------------------|---------------|
G  :-------------------------------|---------------|
C  :----------------6-6-6-6-6-6-6-6|3-3-3-3-3-3-3-3|


D  :-------------------------------|---------------|
A  :-------------------------------|---------------|
F  :5-5-5-5-4-4-4-4----------------|---------------|
C  :-------------------------------|---------------|
G  :-------------------------------|---------------|
C  :----------------6-6-6-6-6-6-6-6|3-3-3-3-3-3-3-3|

============================================================================


D  :----------------|----------------|----------------|----------------|
A  :----------------|----------------|----------------|----------------|
F  :----------------|----------------|----------------|----------------|
C  :----------------|--------------9-|8-------5-----5-|4---------------|
G  :----------------|----------------|----------------|--------4-------|
C  :0-*-------------|----------------|--8-5-8---8-5---|--7-4-7---7-4-7-|


D  :----------------|----------------|----------------|----------------|
A  :----------------|----------------|----------------|----------------|
F  :----------------|----------------|----------------|----------------|
C  :----------------|--------------9-|8-------5-----5-|4---------------|
G  :----------------|----------------|----------------|--------4-------|
C  :0-*-------------|----------------|--8-5-8---8-5---|--7-4-7---7-4-7-|

============================================================================


D  :--------------------|-------------------------------|
A  :--------------------|-------------------------------|
F  :--------------------|-------------------------------|
C  :--------------------|-------------------------------|
G  :--------5-5-5-5-----|4-4-4-4------------------------|
C  :5-8-5-8---------8-5-|--------7-7-7-7-4-4-4-4-7-7-7-7|


D  :--------------------|-------------------------------|
A  :--------------------|-------------------------------|
F  :--------------------|-------------------------------|
C  :--------8-8-8-8-----|7-7-7-7------------------------|
G  :--------------------|-------------------------------|
C  :5-8-5-8---------8-5-|--------7-7-7-7-4-4-4-4-7-7-7-7|

============================================================================


D  :----------------------------|--------|-------------|
A  :----------------------------|--------|-------------|
F  :----------------------------|--------|-------------|
C  :----------------------------|--------|----8-----11-|
G  :----------------------------|--------|--5-----8----|
C  :0-0-0-0-0-0-0-0-0-0-0-0-5---|4-1-4---|5-----8------|


D  :----------------------------|--------|-------------|
A  :----------------------------|--------|-------------|
F  :----------------------------|--------|-------------|
C  :----------------------------|--------|-------------|
G  :----------------------------|--------|-------------|
C  :0-0-0-0-0-0-0-0-0-0-0-0-5---|4-1-4---|*------------|

============================================================================


D  :-------------------------------------|------------------------|
A  :-------------------------------------|------------------------|
F  :-------------------------------------|------------------------|
C  :-*-----------------------------------|--------------7---------|
G  :-------------------------------------|7-----------------------|
C  :-------------------------------------|----10---7-10---10-7-10-|


D  :------------6-10--t15--10-6----------|------------------------|
A  :---------8-------------------8-------|------------------------|
F  :------7-------------------------7----|------------------------|
C  :----8-----------------------------8--|7-----------------------|
G  :10-----------------------------------|------------------------|
C  :-------------------------------------|------------------------|

============================================================================


D  :--------------------|----------------|----------------|----------------|
A  :--------------------|----------------|----------------|----------------|
F  :--------------------|----------------|----------------|----------------|
C  :10---------7--------|--------5-------|--------8-----9-|8-------5-----5-|
G  :--------------------|5---------------|5---------------|----------------|
C  :---10-7-10---10-7---|--8-5-8---8-5-8-|--8-5-8---8-5---|--8-5-8---8-5---|


D  :--------------------|----------------|----------------|----------------|
A  :--------------------|----------------|----------------|----------------|
F  :--------------------|----------------|----------------|----------------|
C  :----------------6---|--------5-------|--------8-----9-|8-------5-----5-|
G  :--------------------|5---------------|5---------------|----------------|
C  :--------------------|--8-5-8---8-5-8-|--8-5-8---8-5---|--8-5-8---8-5---|

============================================================================


D  :----------------|-----------------------------|
A  :----------------|-----------------------------|
F  :----------------|-----------------------------|
C  :4---------------|-----------------------------|
G  :--------4-------|--------5--h6-p5--h6--p5-h6--|
C  :--7-4-7---7-4-7-|5-8-5-8----------------------|


D  :----------------|-----------------------------|
A  :----------------|-----------------------------|
F  :----------------|-----------------------------|
C  :4---------------|--------7--h8-p7--h8--p7-h8--|
G  :--------4-------|-----------------------------|
C  :--7-4-7---7-4-7-|5-8-5-8----------------------|

============================================================================


D  :------------------------------------|----------------|
A  :------------------------------------|----------------|
F  :------------------------------------|----------------|
C  :------------------------------------|5-7-8-5-7-5-4---|
G  :----4--h5-p4--h5--p4-h5--p4--h5-p4--|--------------6-|
C  :4-7---------------------------------|----------------|


D  :------------------------------------|----------------|
A  :------------------------------------|----------------|
F  :------------------------------------|----------------|
C  :----6--h7-p6--h7--p6-h7--p6--h7-p6--|5-7-8-5-7-5-4---|
G  :------------------------------------|--------------6-|
C  :4-7---------------------------------|----------------|

============================================================================


D  :-------------6-/--|-9---~----------5---|----------------|
A  :-----------8------|--------------------|----------------|
F  :-------7-8--------|--------------------|----------------|
C  :-----8------------|--------------------|----1---1-4---4-|
G  :5-10--------------|--------------------|----------------|
C  :------------------|--------------------|0-1---1-----4---|

                       + 5
D  :-------------6-/--|10/--~---------10---|----------------|
A  :-----------8------|--------------------|----------------|
F  :-------7-8--------|--------------------|----------------|
C  :-----8------------|--------------------|----5---5-7---7-|
G  :5-10--------------|--------------------|----------------|
C  :------------------|--------------------|0-5---5-----7---|

============================================================================


D  :---------------------|
A  :---------------------|
F  :---------------------|
C  :--5-----7-----8--7-5-|
G  :---------------------|
C  :5----7-----8---------|


D  :---------------------|
A  :---------------------|
F  :---------------------|
C  :--8----10----12-10-8-|
G  :---------------------|
C  :8---10----12---------|

============================================================================


D  :------------------------|------------------------|
A  :------------------------|------------------------|
F  :0-----------------------|----------------0-------|
C  :4-----------------------|----------------4-------|
G  :------------------------|------------------------|
C  :--------4--4-4--4--*----|4--4-4--4--*------------|


D  :------------------------|------------------------|
A  :------------------------|------------------------|
F  :0-----------------------|----------------0-------|
C  :4-----------------------|----------------4-------|
G  :------------------------|------------------------|
C  :--------4--4-4--4--*----|4--4-4--4--*------------|

============================================================================


D  :----------------------------|------------------------|
A  :----------------------------|------------------------|
F  :----------------------------|----------------0-------|
C  :----------------------------|----------------4-------|
G  :------------4-------4-------|4----4-----4------------|
C  :----4--4-4--4-------4-------|4----4-----4------------|


D  :----------------------------|------------------------|
A  :----------------------------|------------------------|
F  :----------------------------|----------------0-------|
C  :----------------------------|----------------4-------|
G  :------------4-------4-------|4----4-----4------------|
C  :----4--4-4--4-------4-------|4----4-----4------------|

============================================================================


D  :--------------------------------|--------------------|
A  :--------------------------------|--------------------|
F  :--------------------------------|0-------------------|
C  :--------------------------------|4-------------------|
G  :--------------------------------|--------------------|
C  :4--4-4--4--*----4--4-4--4--*----|------------4--4-4--|


D  :--------------------------------|--------------------|
A  :--------------------------------|--------------------|
F  :--------------------------------|0-------------------|
C  :--------------------------------|4-------------------|
G  :--------------------------------|--------------------|
C  :4--4-4--4--*----4--4-4--4--*----|------------4--4-4--|

============================================================================


D  :--------------------------------|------------------------|
A  :--------------------------------|------------------------|
F  :--------------------------------|------------------------|
C  :--------------------------------|------------------------|
G  :4-------4-------4----4-----4----|4----4-----4------------|
C  :4-------4-------4----4-----4----|4----4-----4----*-------|


D  :--------------------------------|------------------------|
A  :--------------------------------|------------------------|
F  :--------------------------------|------------------------|
C  :--------------------------------|------------------------|
G  :4-------4-------4----4-----4----|4----4-----4------------|
C  :4-------4-------4----4-----4----|4----4-----4----*-------|

============================================================================


D  :------------------------|------------------------|
A  :------------------------|------------------------|
F  :0-----------------------|----------------0-------|
C  :1-----------------------|----------------1-------|
G  :------------------------|------------------------|
C  :--------1--1-1--1--*----|1--1-1--1--*------------|


D  :------------------------|------------------------|
A  :------------------------|------------------------|
F  :0-----------------------|----------------0-------|
C  :1-----------------------|----------------1-------|
G  :------------------------|------------------------|
C  :--------1--1-1--1--*----|1--1-1--1--*------------|

============================================================================


D  :----------------------------|------------------------|
A  :----------------------------|------------------------|
F  :----------------------------|----------------0-------|
C  :----------------------------|----------------1-------|
G  :------------1-------1-------|1----1-----1------------|
C  :----1--1-1--1-------1-------|1----1-----1------------|


D  :----------------------------|------------------------|
A  :----------------------------|------------------------|
F  :----------------------------|----------------0-------|
C  :----------------------------|----------------1-------|
G  :------------1-------1-------|1----1-----1------------|
C  :----1--1-1--1-------1-------|1----1-----1------------|

============================================================================


D  :--------------------------------|--------------------|
A  :--------------------------------|--------------------|
F  :--------------------------------|0-------------------|
C  :--------------------------------|1-------------------|
G  :--------------------------------|--------------------|
C  :1--1-1--1--*----1--1-1--1--*----|------------1--1-1--|


D  :--------------------------------|--------------------|
A  :--------------------------------|--------------------|
F  :--------------------------------|0-------------------|
C  :--------------------------------|1-------------------|
G  :--------------------------------|--------------------|
C  :1--1-1--1--*----1--1-1--1--*----|------------1--1-1--|

============================================================================


D  :--------------------------------|------------------------|
A  :--------------------------------|------------------------|
F  :--------------------------------|----------------0-------|
C  :--------------------------------|----------------4-------|
G  :1-------1-------1----1-----1----|1----1-----1------------|
C  :1-------1-------1----1-----1----|1----1-----1------------|


D  :--------------------------------|------------------------|
A  :--------------------------------|------------------------|
F  :--------------------------------|----------------0-------|
C  :--------------------------------|----------------4-------|
G  :1-------1-------1----1-----1----|1----1-----1------------|
C  :1-------1-------1----1-----1----|1----1-----1------------|

============================================================================


D  :--------------------------------|--------------------|
A  :--------------------------------|--------------------|
F  :--------------------------------|0-------------------|
C  :--------------------------------|4-------------------|
G  :--------------------------------|--------------------|
C  :4--4-4--4--*----4--4-4--4--*----|------------4--4-4--|


D  :--------------------------------|--------------------|
A  :--------------------------------|--------------------|
F  :--------------------------------|0-------------------|
C  :--------------------------------|4-------------------|
G  :--------------------------------|--------------------|
C  :4--4-4--4--*----4--4-4--4--*----|------------4--4-4--|

============================================================================


D  :--------------------------------|------------------------|
A  :--------------------------------|------------------------|
F  :--------------------------------|0-----------------------|
C  :--------------------------------|4-----------------------|
G  :4-------4-------4----4-----4----|------------------------|
C  :4-------4-------4----4-----4----|--------4--4-4--4--*----|


D  :--------------------------------|------------------------|
A  :--------------------------------|------------------------|
F  :--------------------------------|0-----------------------|
C  :--------------------------------|4-----------------------|
G  :4-------4-------4----4-----4----|------------------------|
C  :4-------4-------4----4-----4----|--------4--4-4--4--*----|

============================================================================


D  :------------------------|----------------------------|
A  :------------------------|----------------------------|
F  :----------------0-------|----------------------------|
C  :----------------4-------|----------------------------|
G  :------------------------|------------4-------4-------|
C  :4--4-4--4--*------------|----4--4-4--4-------4-------|


D  :------------------------|----------------------------|
A  :------------------------|----------------------------|
F  :----------------0-------|----------------------------|
C  :----------------4-------|----------------------------|
G  :------------------------|------------4-------4-------|
C  :4--4-4--4--*------------|----4--4-4--4-------4-------|

============================================================================


D  :----------------------------------------|------------------------|
A  :----------------------------------------|------------------------|
F  :----------------------------------------|0-----------------------|
C  :----------------------------------------|1-----------------------|
G  :4----4-----4----4----4-----4------------|------------------------|
C  :4----4-----4----4----4-----4----*-------|--------1--1-1--1--*----|


D  :----------------------------------------|------------------------|
A  :----------------------------------------|------------------------|
F  :----------------------------------------|0-----------------------|
C  :----------------------------------------|1-----------------------|
G  :4----4-----4----4----4-----4------------|------------------------|
C  :4----4-----4----4----4-----4----*-------|--------1--1-1--1--*----|

============================================================================


D  :------------------------|----------------------------|
A  :------------------------|----------------------------|
F  :----------------0-------|----------------------------|
C  :----------------1-------|----------------------------|
G  :------------------------|------------1-------1-------|
C  :1--1-1--1--*------------|----1--1-1--1-------1-------|


D  :------------------------|----------------------------|
A  :------------------------|----------------------------|
F  :----------------0-------|----------------------------|
C  :----------------1-------|----------------------------|
G  :------------------------|------------1-------1-------|
C  :1--1-1--1--*------------|----1--1-1--1-------1-------|

============================================================================


D  :------------------------|--------------------------------|
A  :------------------------|--------------------------------|
F  :----------------0-------|--------------------------------|
C  :----------------1-------|--------------------------------|
G  :1----1-----1------------|--------------------------------|
C  :1----1-----1------------|1--1-1--1--*----1--1-1--1--*----|


D  :------------------------|--------------------------------|
A  :------------------------|--------------------------------|
F  :----------------0-------|--------------------------------|
C  :----------------1-------|--------------------------------|
G  :1----1-----1------------|--------------------------------|
C  :1----1-----1------------|1--1-1--1--*----1--1-1--1--*----|

============================================================================


D  :--------------------|--------------------------------|
A  :--------------------|--------------------------------|
F  :0-------------------|--------------------------------|
C  :1-------------------|--------------------------------|
G  :--------------------|1-------1-------1----1-----1----|
C  :------------1--1-1--|1-------1-------1----1-----1----|


D  :--------------------|--------------------------------|
A  :--------------------|--------------------------------|
F  :0-------------------|--------------------------------|
C  :1-------------------|--------------------------------|
G  :--------------------|1-------1-------1----1-----1----|
C  :------------1--1-1--|1-------1-------1----1-----1----|

============================================================================


D  :------------------------|--------------------------------|
A  :------------------------|--------------------------------|
F  :----------------0-------|--------------------------------|
C  :----------------4-------|--------------------------------|
G  :1----1-----1------------|--------------------------------|
C  :1----1-----1------------|4--4-4--4--*----4--4-4--4--*----|


D  :------------------------|--------------------------------|
A  :------------------------|--------------------------------|
F  :----------------0-------|--------------------------------|
C  :----------------4-------|--------------------------------|
G  :1----1-----1------------|--------------------------------|
C  :1----1-----1------------|4--4-4--4--*----4--4-4--4--*----|

============================================================================


D  :--------------------|--------------------------------|
A  :--------------------|--------------------------------|
F  :0-------------------|--------------------------------|
C  :4-------------------|--------------------------------|
G  :--------------------|4-------4-------4----4-----4----|
C  :------------4--4-4--|4-------4-------4----4-----4----|


D  :--------------------|--------------------------------|
A  :--------------------|--------------------------------|
F  :0-------------------|--------------------------------|
C  :4-------------------|--------------------------------|
G  :--------------------|4-------4-------4----4-----4----|
C  :------------4--4-4--|4-------4-------4----4-----4----|

============================================================================


D  :------------------------|------------------------|
A  :------------------------|------------------------|
F  :0-----------------------|----------------0-------|
C  :4-----------------------|----------------4-------|
G  :------------------------|------------------------|
C  :--------4--4-4--4--*----|4--4-4--4--*------------|


D  :------------------------|------------------------|
A  :------------------------|------------------------|
F  :0-----------------------|----------------0-------|
C  :4-----------------------|----------------4-------|
G  :------------------------|------------------------|
C  :--------4--4-4--4--*----|4--4-4--4--*------------|

============================================================================


D  :----------------------------|----------------------------------------|
A  :----------------------------|----------------------------------------|
F  :----------------------------|----------------------------------------|
C  :----------------------------|----------------------------------------|
G  :------------4-------4-------|4----4-----4----4----4-----4------------|
C  :----4--4-4--4-------4-------|4----4-----4----4----4-----4----*-------|


D  :----------------------------|----------------------------------------|
A  :----------------------------|----------------------------------------|
F  :----------------------------|----------------------------------------|
C  :----------------------------|----------------------------------------|
G  :------------4-------4-------|4----4-----4----4----4-----4------------|
C  :----4--4-4--4-------4-------|4----4-----4----4----4-----4----*-------|

============================================================================


D  :--------------------------------------------------|
A  :--------------------------------------------------|
F  :0-------------------------------------------------|
C  :1-------------------------------------------------|
G  :--------------------------------------------------|
C  :----------1--1---1--1--*-------1--1----1--1--*----|


D  :--------------------------------------------------|
A  :--------------------------------------------------|
F  :0-------------------------------------------------|
C  :1-------------------------------------------------|
G  :--------------------------------------------------|
C  :----------1--1---1--1--*-------1--1----1--1--*----|


D  :--------------------6---10---t11----10----6-------|
A  :---------------8------------------------------8---|
F  :----------7---------------------------------------|
C  :--------8-----------------------------------------|
G  :5-/6-10-------------------------------------------|
C  :--------------------------------------------------|

============================================================================


D  :--------------------------|---------------------------------------|
A  :--------------------------|---------------------------------------|
F  :0-------------------------|---------------------------------------|
C  :1-------------------------|---------------------------------------|
G  :--------------------------|1-------1----------1------1-----1------|
C  :----------------1--1---1--|1-------1----------1------1-----1------|


D  :--------------------------|---------------------------------------|
A  :--------------------------|---------------------------------------|
F  :0-------------------------|---------------------------------------|
C  :1-------------------------|---------------------------------------|
G  :--------------------------|1-------1----------1------1-----1------|
C  :----------------1--1---1--|1-------1----------1------1-----1------|


D  :--------------------------|--------6---10---t11---10----6----10---|
A  :--------------------------|----8----------------------------------|
F  :7-------------------------|7--------------------------------------|
C  :--8------------------8----|---------------------------------------|
G  :----10-6-\5-/6-10---------|---------------------------------------|
C  :--------------------------|---------------------------------------|

============================================================================


D  :------------------------------|------------------------------|
A  :------------------------------|------------------------------|
F  :--0---------------------------|------------------0-----------|
C  :--1---------------------------|------------------1-----------|
G  :------------------------------|------------------------------|
C  :-----------1--1---1---1--*----|--1--1-1--1--*----------------|


D  :------------------------------|------------------------------|
A  :------------------------------|------------------------------|
F  :--0---------------------------|------------------0-----------|
C  :--1---------------------------|------------------1-----------|
G  :------------------------------|------------------------------|
C  :-----------1--1---1---1--*----|--1--1-1--1--*----------------|


D  :t15-10-6----------------------|t17------------------b-b-b-b--|
A  :---------8--------------------|------------------------------|
F  :-----------7------------------|------------------------------|
C  :----------------8-------------|------------------------------|
G  :---------------------10---6---|------------------------------|
C  :------------------------------|------------------------------|

============================================================================


D  :-------------------------------|----------------------------------|
A  :-------------------------------|----------------------------------|
F  :-------------------------------|----------------------------------|
C  :-------------------------------|----------------------------------|
G  :--------------1--------1-------|--1----1----1----1----1------1----|
C  :-----1--1-1---1--------1-------|--1----1----1----1----1------1----|


D  :-------------------------------|----------------------------------|
A  :-------------------------------|----------------------------------|
F  :-------------------------------|----------------------------------|
C  :-------------------------------|----------------------------------|
G  :--------------1--------1-------|--1----1----1----1----1------1----|
C  :-----1--1-1---1--------1-------|--1----1----1----1----1------1----|


D  :r--------*---------------15-18-|/22--*20---18---17-----*-15-----*-|
A  :----------------------16-------|----------------------------------|
F  :-------------------15----------|----------------------------------|
C  :----------------17-------------|----------------------------------|
G  :-------------18----------------|----------------------------------|
C  :-------------------------------|----------------------------------|
comments
print report bad tab
4 comments total. Showing first comments.
0 reply
The Interlude wrote on December 30 2010, 08:40 pm

Holy french toast! The faceless' stuff is hard!!! I feel like I'm studying (in agood way) awesome transcription

0 reply
Deep_Blue_2 wrote on January 10 2012, 02:18 pm

Hey, could you please make Tabs from the bass part?
That would be awesome!
Maybe you should use the freeware Tuxguitar to open and make Gp files

0 reply
Despisedicon317 wrote on January 8 2013, 12:07 am

Hey man can I have the bass part for this song? I ****in love this song

I want to post or [tab]
guest
You may want to rate the tab now too:
select rating
Please do not post tabs as comments. Select "correction" instead!