Oops, an error
Loading. Please wait.

A Man A Plan A Canal Panama Tab

ver1
ver1

Whole song

Interactive

More versions @911Tabs.com
21,536 views 35 this week
23 commentsread comments
1 2 3 4 5
excellent!
x 17
Autoscroll
+/-
esc
set tempo
stop
Contributor
Hey! There's an official Ultimate Guitar app which is ideal
for learning songs when you're away from computer. Get the app
WARNING: You are trying to view
                                    content from Ultimate-Guitar.com
                                    in an unauthorized application,
                                    which is prohibited.

                                    Please use an official Ultimate
                                    Guitar Tabs application for iPhone,
                                    iPad or Android to access legitimate
                                    chords, guitar, bass, and drum tabs
                                    from Ultimate-Guitar.com database.

                                    Type "ultimate guitar tabs" in Apple
                                    App Store's or Android Market's
                                    search to find the application.
Here is my favorite song on the new Fall of Troy cd. It happens to be the most epic.

This is revised thanks to matddors for catching my slip-up in the intro. This should be 100% correct.

___________________________________________________________________________
a.man.a.plan.a.canal.panama....
____________________________________________________________________________

INTRO:
E--------------------------------------------------12-14-15-----------------------|
B-------------------10/8-7p0-5-7--7---7-----12-14-15------------------------------|
G---7-7-7-7-7-7-------------------x---x---12--------------------------------------|
D---x-x-x-x-x-x-------------------5---5-------------------------------------------|
A---7-7-7-7-7-7-------------------------------------------------------------------|
E---------------------------------------------------------------------------------|
    ------------------------------------------------------------------------------|
-12-12-12--12-12-15--12----10-10-10--10-10-10-13--10----12-12-12--12-15--12-------|
-12-12-12--12-12-12--12----11-11-11--11-11-11-11--11----12-12-12--12-12--12-------|
-x--x--x---x--x--x---x-----12-12-12--12-12-12-12--12----x--x--x---x--x---x--------|
-15-15-15--15-15-15--15---------------------------------15-15-15--15-15--15-------|
----------------------------------------------------------------------------------|

                            ...(harmonics)
----------------------5-------------------(12)---(5)-----------------------|
--4--4--4--4--4--4----0-------------(7)---(12)---(5)------------------------|
--5--5--5--5--5--5----4-------------(7)---(12)---(5)-------------------------|
--x--x--x--x--x--x----5-------------(7)-------------------------------------|
--3--3--3--3--3--3----x----------------------------------------------------|
----------------------3----------------------------------------------------|
                                                  ^^^(bend w/ neck)^^^^
2nd time:
E--------------------------------------------------12-14-15-|
B-------------------10/8-7p0-5-7--7---7-----12-14-15--------|
G---7-7-7-7-7-7-------------------x---x---12----------------|
D---x-x-x-x-x-x-------------------5---5---------------------|
A---7-7-7-7-7-7---------------------------------------------|
E-----------------------------------------------------------|

----------------------------------------------------15p0-17/19-0-------|
-12-12-12--12-12-15--12----10-10-10--10-10---15/17---------------------|
-12-12-12--12-12-12--12----11-11-11--11-11-----------------------------|
-x--x--x---x--x--x---x-----12-12-12--12-12-----------------------------|
-15-15-15--15-15-15--15------------------------------------------------|
-----------------------------------------------------------------------|

------------------------------------------|
-12-12-12--12-15--12----4--4--4--4--4--4--|
-12-12-12--12-12--12----5--5--5--5--5--5--|
-x--x--x---x--x---x-----x--x--x--x--x--x--|
-15-15-15--15-15--15----3--3--3--3--3--3--|
------------------------------------------|
_______________________________________________________________________________
VERSE:_________________________________________________________________________

|----------------------------------------|------5-5h7p5p0---------|
|-10-10-10-10---12-12-12-12-12-12-13-(0)-|----------------5h7h8p0-|
|-10-10-10-10---10-10-10-10-10-10-10-(0)-|-2--2-------------------|
|-12-12-12-12---12-12-12-12-12-12-12-----|-2--2-------------------|
|----------------------------------------|-0--0-------------------|
|----------------------------------------|------------------------|

|--------------------------------------------|
|-10-10-10-10---12-12-12-12-12-12-13---(0)---|
|-10-10-10-10---10-10-10-10-10-10-10---(0)---|
|-12-12-12-12---12-12-12-12-12-12-12---------|
|--------------------------------------------|
|--------------------------------------------|
|-------0h5p0--------2h3p0-------------------|
|-------------5--7p0-------------------------|
|--------------------------------------------|
|--------------------------------------------|
|-3--2---------------------------------------|
|-3--2---------------------0-0---------------|

|-----------------------------|-------7------8---7-10-----|
|-------7p5p0-9p5p0-5p0-8-----|-------8---8----8----------|
|-----------------------------|---------9-----------------|
|-----------------------------|---------------------------|
|-3--2------------------------|-3--2----------------------|
|-3--2--------------------0-0-|-1--0------------------0-0-|

|-------8-----10----8-12---|
|-------8---8----10--------|
|---------9----------------|
|--------------------------|
|-3--2---------------------|
|-1--0---------------------|

|----------------------------------------|------5-5h7p5p0-----------|
|-10-10-10-10---12-12-12-12-12-12-13-(0)-|----------------5h7h8p0---|
|-10-10-10-10---10-10-10-10-10-10-10-(0)-|-2--2---------------------|
|-12-12-12-12---12-12-12-12-12-12-12-----|-2--2---------------------|
|----------------------------------------|-0--0---------------------|
|----------------------------------------|--------------------------|

|----------------------------------------|
|-10-10-10-10---12-12-12-12-12-12-13-(0)-|
|-10-10-10-10---10-10-10-10-10-10-10-(0)-|
|-12-12-12-12---12-12-12-12-12-12-12-----|
|----------------------------------------|
|----------------------------------------|

|-------0h5p0--------2h3p0-----|-----------------------------|
|-------------5--7p0-----------|-------7p5p0-9p5p0-5p0-8-----|
|------------------------------|-----------------------------|
|------------------------------|-----------------------------|
|-3--2-------------------------|-3--2------------------------|
|-3--2---------------------0-0-|-3--2--------------------0-0-|

|-------7------8---7-10-----|-------8-----10----8-12---|-------------------||
|-------8---8----8----------|-------8---8----10--------|-------------------||
|---------9-----------------|---------9----------------|----------------12-||
|---------------------------|--------------------------|-------12-12h14----||
|-3--2----------------------|-3--2---------------------|-14h15-------------||
|-1--0------------------0-0-|-1--0---------------------|-------------------||

_____________________________________________________________________________
CHORUS_______________________________________________________________________

--------------------------------|--------------------------------|
-----------------13----------12-|-(12)---------------------------|
------12-(12)--------12-(12)----|------12-14------------------12-|
--------------14----------------|--------------------12-12h14----|
--------------------------------|--------------14h15-------------|
--13----------------------------|--------------------------------|

|-------------------------------|---------------------------|
|----------------13----------12-|-(12)----------------------|
|-----12-(12)--------12-(12)----|------12-12--------------7-|
|-------------14----------------|-------------------7-7h9---|
|-------------------------------|--------------9h10---------|
|-13----------------------------|---------------------------|

|-----------------------|------------------------|
|------------8--------7-|-(7)---7----------------|
|----7-(7)------7-(7)---|-----7----------------7-|
|----------9------------|----------------7-7h9---|
|-----------------------|-----------9h10---------|
|-8---------------------|------------------------|

|-----------------------|-----------------------|
|------------8--------7-|-(7)---7---------------|
|----7-(7)------7-(7)---|-----7---------------4-|
|----------9------------|---------------4-4h6---|
|-----------------------|-----------6h7---------|
|-8---------------------|-----------------------|

|-----------------------|-----------------------|
|------------5--------4-|-(4)---4---------------|
|----4-(4)------4-(4)---|-----4---------------4-|
|----------6------------|---------------4-4h6---|
|-----------------------|-----------6h7---------|
|-0---------------------|-----------------------|

|-----------------------|------------------------------||
|------------5--------4-|-(4)---4----------------------||
|----4-(4)------4-(4)---|-----4--------------------12--||
|----------6------------|-----------------12-12h14-----||
|-----------------------|-----------14h15--------------||
|-0---------------------|------------------------------||

|-----------------------|-----------------------|
|------------5--------4-|-(4)---4---------------|
|----4-(4)------4-(4)---|-----4---------------4-|
|----------6------------|---------------4-4h6---|
|-----------------------|-----------6h7---------|
|-0---------------------|-----------------------|


|-----------------------|--------------------||
|------------5--4-(4)-0-|--7--7--7--7--7-(0)-||
|----4-(4)---4--4-(4)-0-|--8--8--8--8--8-(0)-||
|----------6------------|-10-10-10-10-10-----||
|-----------------------|--------------------||
|-0---------------------|--------------------||

|-----------------------|--------------------||
|------------5--4-(4)-0-|--4--4--4--4--4-----||
|----4-(4)---4--4-(4)-0-|--5--5--5--5--5-(0)-||
|----------6------------|--x--x--x--x--x-(0)-||
|-----------------------|--3--3--3--3--3-----||
|-0---------------------|--------------------||

(Repeat Intro)

then...

||-------------------|---------------------------|----------------------|
||-------------------|---------------------------|----------11-------14-|
||-------------------|----------6-----9-------12-|----9-(9)-------12----|
||-----------5-----8-|----5-(5)-----8------11----|-8-----------11-------|
||-----4-(4)-----7---|-4----------7-----10-------|----------------------|
||--3----------6-----|---------------------------|----------------------|

|------------12-------15-------18--||
|----11-(11)-------14-------17-----||
|-9-------------12-------15--------||
|----------------------------------||
|----------------------------------||
|----------------------------------||

||---------------------|--------------------------------|
||o--------------------|--------------------------------|
||---------------------|----------6-----9---------12----|
||-----------5-----8---|----5-(5)-----8---8----11----11-|
||o----4-(4)-----7---7-|-4----------7-------10----------|
||--3----------6-------|--------------------------------|

|-------------------------|------------12-------15----------18-----||
|----------11-------14----|----11-(11)-------14----14----17----17-o||
|----9-(9)-------12----12-|-9-------------12----------15-----------||
|-8-----------11----------|----------------------------------------||
|-------------------------|---------------------------------------o||
|-------------------------|----------------------------------------||


|-18--------|-15--------|-12--------|-3------(3)--------||
|-17--------|-14--------|-11--------|-2b3r===(2)--(2)p0-||
|-----------|-----------|-----------|-------------------||
|-----------|-----------|-----------|-------------------||
|-----------|-----------|-----------|-------------------||
|-----------|-----------|-----------|-------------------||

_____________________________________________________________________________
BREAKDOWN!___________________________________________________________________

|---------------|---------------|-------------|---------------|
|---------------|---------------|-------------|---------------|
|-3-------------|-6-------------|-5---5---9---|-5-------------|
|-2-------------|-5-------------|-4---4---8---|-4-------------|
|-1-4-3-4-5-4-5-|-4-3-4-3-4-5-4-|-3---3---7---|-3-4-5-4-5-3-4-|
|-0-3-2-3-4-3-4-|-3-2-3-2-3-4-3-|-2---2---6---|-2-3-4-3-4-2-3-|


|----------------|---------------|---------------|-------------|
|----------------|---------------|---------------|-------------|
|-9--12--15--18--|-3-------------|-6-------------|-5---5---9---|
|-8--11--14--17--|-2-------------|-5-------------|-4---4---8---|
|-7--10--13--16--|-1-4-3-4-5-4-5-|-4-3-4-3-4-5-4-|-3---3---7---|
|-6---9--12--15--|-0-3-2-3-4-3-4-|-3-2-3-2-3-4-3-|-2---2---6---|

|---------------|------------|---------------|
|---------------|------------|---------------|
|-5-------------|-9----12----|-15----[17]----|
|-4-------------|-8----11----|-14------------|
|-3-4-5-4-5-3-4-|-7----10----|-13------------|
|-2-3-4-3-4-2-3-|-6-----9----|-12------------|

|-------------------|-------------------|--------------------------------|
|-------------------|-------------------|--------------------------------|
|-------------------|-6-----------------|-------------6--------------6---|
|-8-----------------|-5-----------------|-------------5--------------5---|
|-7--4--3--4--5-4-5-|-4--3--4--3--4-5-4-|-3-3-3-3-3-3-4--3-3-3-3-3-3-4---|
|-6--3--2--3--4-3-4-|-3--2--3--2--3-4-3-|-2-2-2-2-2-2-3--2-2-2-2-2-2-3---|

|-------------|-------------|------------|---------------||
|-------------|-------------|------------|---------------||
|-------------|-------5-----|-9----12----|-15----[17]----||
|-8-----------|-------4-----|-8----11----|-14------------||
|-7--4--3--4--|-3-4-4-3--4--|-7----10----|-13------------||
|-6--3--2--3--|-2-3-3-2--3--|-6-----9----|-12------------||

|-------------------|-------------------|--------------------------------|
|-------------------|-------------------|--------------------------------|
|-9-----------------|-------------------|-------------6--------------6---|
|-8--5--4--5--6-5-6-|-5--4--5--4--5-6-5-|-------------5--------------5---|
|-7--4--3--4--5-4-5-|-4--3--4--3--4-5-4-|-3-3-3-3-3-3-4--3-3-3-3-3-3-4---|
|-6--3--2--3--4-3-4-|-3--2--3--2--3-4-3-|-2-2-2-2-2-2-3--2-2-2-2-2-2-3---|

|-------------|-------------:-----------:-------|
|-------------|-------------:-11--------:-14----|
|-9-----------|-------------:--9--------:-12----|
|-8--5--4--5--|-6-5-6-4--5--:--8--------:-11----|
|-7--4--3--4--|-5-4-5-3--4--:-----------:-------|
|-6--3--2--3--|-4-3-4-2--3--:-----------:-------|

|-----------:-----------:-----------:---------||
|-17--------:-20--------:-23--------:-(23)----||
|-15--------:-18--------:-21--------:-(21)----||
|-14--------:-17--------:-20--------:-(20)----||
|-----------:-----------:-----------:---------||
|-----------:-----------:-----------:---------||
_____________________________________________________________________________
HALF WAY THERE

 Interlude:__________________________________________________________________

|-----------------------------------------------|
|-----------------------------------------------|
|----12p0----12p0----12p0----12p0---------------|
|------------------------------------[9]b10r(9)-|
|-12------12------12------12------12------------|
|-----------------------------------------------|

|-----------------------------------------------|
|-----------------------------------------------|
|----12p0----12p0----12p0----12p0---------------|
|------------------------------------[9]b10r(9)-|
|-12------12------12------12------12------------|
|-----------------------------------------------|

|----------------------------------------------------------------------|
|----------------------------------------------------------------------|
|----12p0----12p0----[9]b10r(9)-([9])b10r(9)-([9])b10r(9)-([9])b10r(9)-|
|----------------------------------------------------------------------|
|-12------12------12---------------------------------------------------|
|----------------------------------------------------------------------|


||------------------------------------------|
||o-----------------------------------------|
||-----12p0----12p0----12p0----12p0----11p0-|
||------------------------------------------|
||o-12------12------12------12------12------|
||------------------------------------------|

|-----------------------------------------|
|-----------------------------------------|
|----12p0----12p0----12p0----12p0----9p0--|
|-----------------------------------------|
|-12------12------12------12------12------|
|-----------------------------------------|

|-----------------------------------------|-------------------------|
|-----------------------------------------|-------------------------|
|----12p0----12p0----12p0----12p0----11p0-|----12p0----12p0----9----|
|-----------------------------------------|-------------------------|
|-12------12------12------12------12------|-12------12------12------|
|-----------------------------------------|-------------------------|

|---------------------2-------|---------------------2-------|
|-----------------5-------5---|-----------------5-------5---|
|-----------------------------|-----------------------------|
|---0h2h4-0-4-0-0---4---4---4-|---0h2h4-0-4-0-0---4---4---4-|
|-0---------------------------|-0---------------------------|
|-----------------------------|-----------------------------|

|-----------------------------|---------------------2--------||
|-----------------5---5---5---|-----------------5-------5---o||
|-----------------------------|------------------------------||
|---0h2h4-0-4-0-0---4---4---4-|---0h2h4-0-4-0-0---4---4---4--||
|-0---------------------------|-0---------------------------o||
|-----------------------------|------------------------------||

|---------------------------------|-------------------------------------|
|-8-----8-----8-----8-----8-------|--7------7-----7-----10-----10-------|
|---0-------0-----0-----0-----0---|-----0-------0-----0------0------0---|
|-----7---7-----7-----7-----7---7-|-------7---7-----7------7------7---7-|
|---------------------------------|-------------------------------------|
|---------------------------------|-------------------------------------|

|---------------------------------|
|-8-----8-----8-----8-----8-------|
|---0-------0-----0-----0-----0---|
|-----7---7-----7-----7-----7---7-|
|---------------------------------|
|---------------------------------|

|------------------------------------------------------||
|-10b11==10-10-10-10-10-10-10-10-10-10-10-10-10-10-10r-||
|--9------9--9--9--9--9--9--9--9--9--9--9--9--9--9--9--||
|------------------------------------------------------||
|------------------------------------------------------||
|------------------------------------------------------||


____________________________________________________________________________
BRIDGE:_____________________________________________________________________

||------------------------------0---|------------------------------------|
||--8-8-8-7-7-7-7-7-7-7---8-7-7-7---|-8-8-8-7-7-7-7-7-7-7---8-----0------|
||--5-5-5-5-5-5-9-9-9-9---9-9-9-9---|-5-5-5-5-5-5-9-9-9-9---9-(0)---0----|
||--7-7-7-7-7-7-9-9-9-9---9-9-9-9---|-7-7-7-7-7-7-9-9-9-9---9--9---------|
||--------------7-7-7-7---7-7-7-7---|-------------7-7-7-7---7------------|
||----------------------------------|------------------------------------|

|-------------------------|------------------------------------||
|-8-8-8-8-7-7-7-7-7-7-7-7-|-10-10-10-10-12-12-12-12-13-12-x-x--||
|-9-9-9-9-7-7-7-7-7-7-7-7-|-11-11-11-11-12-12-12-12-12-12-x-x--||
|-x-x-x-x-x-x-x-x-x-x-x-x-|--x--x--x--x--x--x--x--x--x--x-x-x--||
|-7-7-7-7-5-5-5-5-5-5-5-5-|--9--9--9--9-10-10-10-10-10-10-x-x--||
|-------------------------|------------------------------------||

_____________________________________________________________________________
2nd Interlude:_______________________________________________________________

|-------------------------|-------------------------|--------------------------|
|-------------------------|-------------------------|--------------------------|
|-------------------------|-2--2S4--x-x-2--2S4--x-x-|-5--5S7--x-x-5--5S4--x-x--|
|-4--4S5--x-x-4--4S5--x-x-|-4--4S5--x-x-4--4S5--x-x-|-7--7S9--x-x-7--7S5--x-x--|
|-5--5S7--x-x-5--5S7--x-x-|-------------------------|--------------------------|
|-------------------------|-------------------------|--------------------------|

|---------------------<7>---------|
|-------------------------<7>-----|
|-------------5--5S4----------<7>-|
|-7--7S4--x-x-7--7S5--------------|
|-9--9S6--x-x---------------------|
|---------------------------------|

|-------------------------|-------------------------|
|-------------------------|-------------------------|
|-------------------------|-2--2S4--x-x-2--2S4--x-x-|
|-4--4S5--x-x-4--4S5--x-x-|-4--4S5--x-x-4--4S5--x-x-|
|-5--5S7--x-x-5--5S7--x-x-|-------------------------|
|-------------------------|-------------------------|

|------------------------------------------|------------------------||
|------------------------------------------|------------------------||
|----12-16p0----11-14p0------12p0-----11p0-|-8-8-8-8-4-4-4-4-5------||
|--------------------------9--------7------|-4-4-4-4-x-x-x-x-x------||
|-14---------12---------10--------9--------|-6-6-6-6-2-2-2-2-3------||
|------------------------------------------|------------------------||


||--12-----------------------------|-14--------------------|
||-----12---------------------0----|----12-----------------|
||--------12---------------12---12-|-------12--------------|
||-----------14-(14)----14---------|----------13-(13)------|
||---------------------------------|-----------------------|
||---------------------------------|-----------------------|

|-------------------------------------------|
|-12p8----------12p8----------12-8----------|
|------9-------------9-------------9--------|
|--------10-7----------10-7----------10-----|
|-------------------------------------------|
|-------------------------------------------|

|-----------------------------------------|
|-12p8----------12p8----------12-8--------|
|------9-------------9-------------9------|
|--------10-7----------10-7----------10---|
|-----------------------------------------|
|-----------------------------------------|

|--/8--7--x-x-5--7--x-x-|-----------8-8-8-8-8-8------||
|-/10--8--x-x-7--8--x-x-|-/10---8---7-7-7-7-7-7------||
|-----------------------|-/11---9---8-8-8-8-8-8------||
|-----------------------|----------------------------||
|-----------------------|----------------------------||
|-----------------------|----------------------------||

||--------------------------|
||--------------------------|
||--------------------------|
||--4--4S5--x-x-4--4S5--x-x-|
||--5--5S7--x-x-5--5S7--x-x-|
||--------------------------|

|-------------------------|-------------------------|
|-------------------------|-------------------------|
|-2--2S4--x-x-2--2S4--x-x-|-5--5S7--x-x-5--5S4--x-x-|
|-4--4S5--x-x-4--4S5--x-x-|-7--7S9--x-x-7--7S5--x-x-|
|-------------------------|-------------------------|
|-------------------------|-------------------------|

|---------------------<7>---------|
|-------------------------<7>-----|
|-------------5--5S4----------<7>-|
|-7--7S4--x-x-7--7S5--------------|
|-9--9S6--x-x---------------------|
|---------------------------------|

|-------------------------|-------------------------|
|-------------------------|-------------------------|
|-------------------------|-2--2S4--x-x-2--2S4--x-x-|
|-4--4S5--x-x-4--4S5--x-x-|-4--4S5--x-x-4--4S5--x-x-|
|-5--5S7--x-x-5--5S7--x-x-|-------------------------|
|-------------------------|-------------------------|

|-------------------------------------------------|-------------------------||
|-------------------------------------------------|-------------------------||
|-16-16-16-16-14-14-14-14-12-12-12-12-11-11-11-11-|-8-8-8-8-4-4-4-4-5-------||
|-12-12-12-12-10-10-10-10--9--9--9--9--7--7--7--7-|-4-4-4-4-x-x-x-x-x-------||
|-14-14-14-14-12-12-12-12-10-10-10-10--9--9--9--9-|-6-6-6-6-2-2-2-2-3-------||
|-------------------------------------------------|-------------------------||


|------------------------------------------|------------------------||
|------------------------------------------|-----------------0------||
|----12-16p0----11-14p0------12p0-----11p0-|-8-8-8-8-4-4-4-4-5------||
|--------------------------9--------7------|-4-4-4-4-x-x-x-x-x------||
|-14---------12---------10--------9--------|-6-6-6-6-2-2-2-2-3------||
|------------------------------------------|------------------------||

_____________________________________________________________________________
BREAKDOWN #2!________________________________________________________________

||--------------------------------|----------12h14h15p14-12-(12)s10-12h14p12-|
||--13----13------13----------13--|------------------------------------------|
||--16----16------16----------16--|------------------------------------------|
||---------------------------(17)-|------------------------------------------|
||-----0-----0--0----0-0-0-0------|-0--0-0-----------------------------------|
||--------------------------------|------------------------------------------|

|------------------------|-------------------10p0---|
|--8-----8-------8-------|--8------8---7-8-7------0-|
|-11----11------11-------|-11-----11----------------|
|------------------------|--------------------------|
|------------------------|--------------------------|
|----0-----0--0----0-0-0-|----0-0-------------------|

|-------------------------------|----------12h14h15p14-12-(12)s10-12h14p12-|
|-13----13------13----------13--|------------------------------------------|
|-16----16------16----------16--|------------------------------------------|
|--------------------------(17)-|------------------------------------------|
|----0-----0--0----0-0-0-0------|-0--0-0-----------------------------------|
|-------------------------------|------------------------------------------|

|----------0h2p0-------|----------0h1p0--------||------------------||
|-----2--------------0-|-----1----------1-----o||------1-----------||
|-----3----------3---4-|-----2-----------------||------2----<5>----||
|-2---2--2---------4---|------------------2-2--||------------------||
|-4------4-------------|-3------3---------0-0-o||--3------3--------||
|-2------2-------------|-1------1--------------||--1------1--------||

____________________________________________________________________________
 BREAKDOWN #3!______________________________________________________________

|----------------------------|-----------------------------------|
|----------------------------|-----------------------------------|
|----9-----9-----------------|----9------------------------------|
|----8-----8-----------------|----8------------------------------|
|----7-----7-----------------|----7------------------------------|
|-0----0-0---0-5-7-8-7-5-7-5-|-0----0-0-3p0h3p0h3p0h3p0h3p0h3p0--|

|----------------------------|-----------------------|
|----------------------------|----------12-----(12)--|
|----9-----9-----------------|----9-----14b16--(14)--|
|----8-----8-----------------|----8------------------|
|----7-----7-----------------|----7------------------|
|-0----0-0---0-5-7-8-7-5-7-5-|-0----0-0--------------|

|-----------------------------|
|-----------------------------|
|----9-----9------------------|
|----8-----8------------------|
|----7-----7------------------|
|-0----0-0---0-5-7-8-7-5-7-5--|

|--------------------|----------------------------|----------------------------|
|------------12---12-|----------------------------|----------------------------|
|----9-------15---15-|----9-----9-----------------|----9-----<5>----(<5>)-(5)--|
|----8---------------|----8-----8-----------------|----8-----<5>----(<5>)-(5)--|
|----7---------------|----7-----7-----------------|----7-----------------------|
|-0----0-0-----------|-0----0-0---0-5-7-8-7-5-7-5-|-0----0-0-------------------|

|----------------------------------|--------------------------------|
|----------------------------------|------------12s11s12---12s11s12-|
|----9-----9-----------------------|----9-------15s14s15---15s14s15-|
|----8-----8-----------------------|----8---------------------------|
|----7-----7-------------------5-6-|----7---------------------------|
|-0----0-0---5-6-7-8-7-6-5-7-8-----|-0----0-0-----------------------|

|----------------------------------|----------x----|
|----------------------------------|----------x----|
|----9-----9-----------------------|----9-----x----|
|----8-----8-----------------------|----8----------|
|----7-----7-------------------5-6-|----7----------|
|-0----0-0---5-6-7-8-7-6-5-7-8-----|-0----0-0------|

|----------------------------------|--------------x--|
|----------------------------------|--------------x--|
|----9-----9-----------------------|----9---------x--|
|----8-----8-----------------------|----8------------|
|----7-----7-------------------5-6-|----7------------|
|-0----0-0---5-6-7-8-7-6-5-7-8-----|-0----0-0-3------|

more open
|----------------------------------|----------------------------------|
|----------------------------------|----------------------------------|
|----9-----9-----------------------|----9-----------------------------|
|----8-----8-----------------------|----8-----------------------------|
|----7-----7-------------------5-6-|----7-----------------------------|
|-0----0-0---5-6-7-8-7-6-5-7-8-----|-0----0-0-3p0h3p0h3p0h3p0h3p0h3p0-|

|-------------------------------------------------:
|-------------------------------------------------:
|-------------------------------------------------:
|-------------------------------------------------:
|-------------------------------------------------:
|-3p0h3p0h3p0h3p0h3p0h3p0-3p0h3p0h3p0h3p0h3p0h3p0-:

|-----------------------------------------:-------------------------|-------|
|-----------------------------------------:-------------------------|-------|
|-----------------------------------------:-------------------------|-------|
|-----------------------------------------:-------------------------|-------|
|-----------------------------------------:-------------------------|-14\---|
|-3p0h3p0h3p0h3p0h3p0h3p0-4p0-5p0-6p0-7p0-:-8p0-9p0-10p0-11p0-12----|-12\---|
_____________________________________________________________________________
BREAKDOWN #4!________________________________________________________________

||-------------------------------------|
||-----<5>-(<5>)-----------------------|
||-----<5>-(<5>)-----------------------|
||---------------------------------2-4-|
||--2--------------3-4-5-4-5-6-5-6-----|
||--0------------0---------------------|

|-0h7p0-----------------------------------------|
|-------0h7p0-------------------7-------------7-|
|-------------8s5-4-------------8-------------8-|
|-------------------9-9-9-9-9-9-x-9-9-9-9-9-9-x-|
|-------------------7-7-7-7-7-7-6-7-7-7-7-7-7-6-|
|-----------------------------------------------|

|--------------------------------|
|----0-(0)-------------------4-5-|
|----0-(0)---4-5-6-5-6-7-6-7-----|
|--------------------------------|
|-2------------------------------|
|-0--------0---------------------|
|
|--------0h15p0---------------------4-------------4-o||
|---------------16s12-0-------------4-------------4--||
|-----------------------5-5-5-5-5-5-x-5-5-5-5-5-5-x--||
|-----------------------7-7-7-7-7-7-2-7-7-7-7-7-7-2-o||
|----------------------------------------------------||

|--------------------------------|
|----0-(0)-------------------4-5-|
|----0-(0)---4-5-6-5-6-7-6-7-----|
|--------------------------------|
|-2------------------------------|
|-0--------0---------------------|

|-0h15p0----------------------------------------------------------||
|--------0h15p0---------17-17-17-17-17-17-16-17-17-17-17-17-17-16-||
|---------------16s12-0-17-17-17-17-17-17-16-17-17-17-17-17-17-16-||
|------------------------x--x--x--x--x--x--x--x--x--x--x--x--x--x-||
|-----------------------15-15-15-15-15-15-14-15-15-15-15-15-15-14-||
|-----------------------------------------------------------------||

_________________________________________________________________________
OUTRO:___________________________________________________________________

||----------------------|---------------------|--------------------------|
||o-4-4---4-4-5-5---5-5-|-7-7---7-7-8-8---8-8-|-7-7---7-7-13-13---13-13--|
||--4-4---4-4-5-5---5-5-|-7-7---7-7-9-9---9-9-|-8-8---8-8-14-14---14-14--|
||--x-x---x-x-x-x---x-x-|-x-x---x-x-x-x---x-x-|-x-x---x-x--x--x----x--x--|
||o-2-2---2-2-3-3---3-3-|-5-5---5-5-7-7---7-7-|-6-6---6-6-12-12---12-12--|
||----------------------|---------------------|--------------------------|

|--------------------------------------------||
|-17-17-17-17-17-17-16-17-17-17-17-17-17-16--||
|-17-17-17-17-17-17-16-17-17-17-17-17-17-16--||
|--x--x--x--x--x--x--x--x--x--x--x--x--x--x--||
|-15-15-15-15-15-15-14-15-15-15-15-15-15-14--||
|--------------------------------------------||

||----------------------|-----------------------|
||o-4-4-4-4-4-5-5-5-5-5-|-7-7-7-7-7-8-8-8-8-8---|
||--x-x-x-x-x-x-x-x-x-x-|-x-x-x-x-x-x-x-x-x-x---|
||--4-4-4-4-4-5-5-5-5-5-|-7-7-7-7-7-9-9-9-9-9---|
||o-2-2-2-2-2-3-3-3-3-3-|-5-5-5-5-5-7-7-7-7-7---|
||--2-2-2-2-2-3-3-3-3-3-|-5-5-5-5-5-7-7-7-7-7---|

|--------------------------|--------------------------------------------||
|-7-7-7-7-7-13-13-13-13-13-|-17-17-17-17-17-17-16-17-17-17-17-17-17-16--||
|-8-8-8-8-8-14-14-14-14-14-|-17-17-17-17-17-17-16-17-17-17-17-17-17-16--||
|-x-x-x-x-x--x--x--x--x--x-|--x--x--x--x--x--x--x--x--x--x--x--x--x--x--||
|-6-6-6-6-6-12-12-12-12-12-|-15-15-15-15-15-15-14-15-15-15-15-15-15-14--||
|--------------------------|--------------------------------------------||

|--------------------------------------------|
|-17-17-17-17-17-17-16-17-17-17-17-17-17-19--|
|-17-17-17-17-17-17-16-17-17-17-17-17-17-19--|
|--x--x--x--x--x--x--x--x--x--x--x--x--x--x--|
|-15-15-15-15-15-15-14-15-15-15-15-15-15-17--|
|--------------------------------------------|

|-----------|----------------------------------------|
|-20\-------|----------------------------------------|
|-21\-------|----- rest your hands in ice water -----|
|--x--------|----------------------------------------|
|-19\-------|----------------------------------------|
------------|----------------------------------------|

end.
comments
print report bad tab
23 comments total. Showing first comments.
0 reply
guitarmanzac wrote on June 28 2007, 05:11 pm

dude i love you so much right now. Amazing tab! Ive been trying to figure this song out forever.

+1 reply
fetus989 wrote on June 30 2007, 03:15 am

"rest your hands in ice water"
Rofl
Agreed.
Props man, epic.

0 reply
and1streeter wrote on July 2 2007, 08:33 pm

did you do this yourself??

holy crap man nice!

I want to post or [tab]
guest
You may want to rate the tab now too:
select rating
Please do not post tabs as comments. Select "correction" instead!