Oops, an error
Loading. Please wait.

A Man A Plan A Canal Panama Tab

ver2
ver2

Whole song

Interactive

More versions @911Tabs.com
3,239 views 3 this week
no commentswrite comment
1 2 3 4 5
excellent!
x 4
Autoscroll
+/-
esc
set tempo
stop
Contributor
Hey! There's an official Ultimate Guitar app which is ideal
for learning songs when you're away from computer. Get the app
WARNING: You are trying to view
                                    content from Ultimate-Guitar.com
                                    in an unauthorized application,
                                    which is prohibited.

                                    Please use an official Ultimate
                                    Guitar Tabs application for iPhone,
                                    iPad or Android to access legitimate
                                    chords, guitar, bass, and drum tabs
                                    from Ultimate-Guitar.com database.

                                    Type "ultimate guitar tabs" in Apple
                                    App Store's or Android Market's
                                    search to find the application.
#----------------------------------PLEASE NOTE---------------------------------#
#This file is the author's own work and represents their interpretation of the #
#song. You may only use this file for private study, scholarship, or research. #
#------------------------------------------------------------------------------#

A MAN. A PLAN. A CANAL. PANAMA.
As recorded by The Fall of Troy
(From the 2007 Album MANIPULATOR)

Transcribed by ched60
        

Words and Music by Thomas Erak

Gtr I (E A D G B E) - 'Gtr. 1'
Gtr II (E A D G B E) - 'Gtr. 2'
Gtr III (E A D G B E) - 'Fret Noise'

 Intro
  Fast Q=169
  Em7
 4/4
  Gtr I
  S S S S E E  S S S S E S S
|----------------------------|
|-------------10s8-7p0-5-7-7-|
|-7-7-7-7-7----------------x-|
|-x-x-x-x-x----------------5-|
|-7-7-7-7-7------------------|
|----------------------------|
|
| Gtr II
| S S S S E E  S S S S E S S
|----------------------------|
|-------------10s8-7p0-5-7-7-|
|-7-7-7-7-7----------------x-|
|-x-x-x-x-x----------------5-|
|-7-7-7-7-7------------------|
|----------------------------|


                                     G/C
                  |--3--|  |--3--|
  +S  S E  E   E  E  E  E  E  E  E    S  S  E E  S  S  Q   Q
|-------------------------12-14-15-|---------------------------|
|-(7)---7-(0)----12-14-15----------|-12-12-12---12-12-15--12---|
|-(x)---x-(0)-12-------------------|-12-12-12---12-12-12--12---|
|-(5)---5--------------------------|--x--x--x----x--x--x---x---|
|----------------------------------|-15-15-15---15-15-15--15---|
|----------------------------------|---------------------------|
|
|                 |--3--|  |--3--|
| +S  S E  E   E  E  E  E  E  E  E    S  S  E E  S  S  Q   Q
|-------------------------12-14-15-|---------------------------|
|-(7)---7-(0)----12-14-15----------|-12-12-12---12-12-15--12---|
|-(x)---x-(0)-12-------------------|-12-12-12---12-12-12--12---|
|-(5)---5--------------------------|--x--x--x----x--x--x---x---|
|----------------------------------|-15-15-15---15-15-15--15---|
|----------------------------------|---------------------------|


  D                D7  D     G/C                           C°
  Gtr I
                                                            |--3--|  |--3--|
   S  S  E E  S  S  Q   Q     S  S  E E  S  S  Q   E  E     Q  Q  Q  Q  Q  Q
|--------------------------|-----------------------------|---------------------|
|-10-10-10---10-10-13--10--|-12-12-12---12-12-15--12-(0)-|--7--7--7--7--7-(0)--|
|-11-11-11---11-11-11--11--|-12-12-12---12-12-12--12-(0)-|--8--8--8--8--8-(0)--|
|-12-12-12---12-12-12--12--|--x--x--x----x--x--x---x-----|-10-10-10-10-10------|
|--------------------------|-15-15-15---15-15-15--15-----|---------------------|
|--------------------------|-----------------------------|---------------------|
|
| Gtr II
|                                                           |--3--|  |--3--|
|  S  S  E E  S  S  Q   Q     S  S  E E  S  S  Q   E  E     Q  Q  Q  Q  Q  Q
|--------------------------|-----------------------------|---------------------|
|-10-10-10---10-10-13--10--|-12-12-12---12-12-15--12-(0)-|--4--4--4--4--4------|
|-11-11-11---11-11-11--11--|-12-12-12---12-12-12--12-(0)-|--5--5--5--5--5-(0)--|
|-12-12-12---12-12-12--12--|--x--x--x----x--x--x---x-----|--x--x--x--x--x-(0)--|
|--------------------------|-15-15-15---15-15-15--15-----|--3--3--3--3--3------|
|--------------------------|-----------------------------|---------------------|


  Gadd9
   W          +W                      +W
|-^5--------:-(5)------------------:--(5)--------------|
|-^0--------:-(0)------------------:--(0)--------------|
|-^4--------:-(4)------------------:--(4)--------------|
|-^5--------:-(5)------------------:--(5)--------------|
|-^x--------:-(x)------------------:--(x)--------------|
|-^3--------:-(3)------------------:--(3)--------------|
|
|                           \0.5_______/        |
|  W           Q.     Q.    Q         +H       +H
|--5--------:-------<12>---<5>-----:-(<5>)----(<5>)----|
|--0--------:-<7>---<12>---<5>-----:-(<5>)----(<5>)----|
|--x--------:-<7>---<12>---<5>-----:-(<5>)----(<5>)----|
|--5--------:-<7>------------------:-------------------|
|--5--------:----------------------:-------------------|
|--3--------:----------------------:-------------------|


  Em7
  S S S S E E  S S S S E S S
|----------------------------|
|-------------10s8-7p0-5-7-7-|
|-7-7-7-7-7----------------x-|
|-x-x-x-x-x----------------5-|
|-7-7-7-7-7------------------|
|----------------------------|
|
| S S S S E E  S S S S E S S
|----------------------------|
|-------------10s8-7p0-5-7-7-|
|-7-7-7-7-7----------------x-|
|-x-x-x-x-x----------------5-|
|-7-7-7-7-7------------------|
|----------------------------|


                                     G/C
                  |--3--|  |--3--|
  +S  S E  E   E  E  E  E  E  E  E    S  S  E E  S  S  Q   Q
|-------------------------12-14-15-|--------------------------|
|-(7)---7-(0)----12-14-15----------|-12-12-12---12-12-15--12--|
|-(x)---x-(0)-12-------------------|-12-12-12---12-12-12--12--|
|-(5)---5--------------------------|--x--x--x----x--x--x---x--|
|----------------------------------|-15-15-15---15-15-15--15--|
|----------------------------------|--------------------------|
|
|                 |--3--|  |--3--|
| +S  S E  E   E  E  E  E  E  E  E    S  S  E E  S  S  Q   Q
|-------------------------12-14-15-|--------------------------|
|-(7)---7-(0)----12-14-15----------|-12-12-12---12-12-15--12--|
|-(x)---x-(0)-12-------------------|-12-12-12---12-12-12--12--|
|-(5)---5--------------------------|--x--x--x----x--x--x---x--|
|----------------------------------|-15-15-15---15-15-15--15--|
|----------------------------------|--------------------------|


  D
   S  S  E E  S  S  S  S  S S  S  S E
|------------------------15p0-17s19-0-|
|-10-10-10---10-10-15s17--------------|
|-11-11-11---11-11--------------------|
|-12-12-12---12-12--------------------|
|-------------------------------------|
|-------------------------------------|
|
|  S  S  E E  S  S  S  S  S S  S  S E
|------------------------15p0-17s19-0-|
|-10-10-10---10-10-15s17--------------|
|-11-11-11---11-11--------------------|
|-12-12-12---12-12--------------------|
|-------------------------------------|
|-------------------------------------|


  G/C                           C°
                                 |--3--|  |--3--|
   S  S  E E  S  S  Q   E  E     Q  Q  Q  Q  Q  Q
|-----------------------------|--------------------||
|-12-12-12---12-12-15--12-(0)-|--7--7--7--7--7-(0)-||
|-12-12-12---12-12-12--12-(0)-|--8--8--8--8--8-(0)-||
|--x--x--x----x--x--x---x-----|-10-10-10-10-10-----||
|-15-15-15---15-15-15--15-----|--------------------||
|-----------------------------|--------------------||
|
|                                |--3--|  |--3--|
|  S  S  E E  S  S  Q   E  E     Q  Q  Q  Q  Q  Q
|-----------------------------|--------------------||
|-12-12-12---12-12-15--12-(0)-|--4--4--4--4--4-----||
|-12-12-12---12-12-12--12-(0)-|--5--5--5--5--5-(0)-||
|--x--x--x----x--x--x---x-----|--x--x--x--x--x-(0)-||
|-15-15-15---15-15-15--15-----|--3--3--3--3--3-----||
|-----------------------------|--------------------||


 Verse
  $
  Dm            Dm6               Dm7      Am
   S  S  S  S E  S  S  S  S  S  S  E  E    Q  S S S S S S S S E E
|----------------------------------------|------5-5h7p5p0---------|
|-10-10-10-10---12-12-12-12-12-12-13-(0)-|----------------5h7h8p0-|
|-10-10-10-10---10-10-10-10-10-10-10-(0)-|-2--2-------------------|
|-12-12-12-12---12-12-12-12-12-12-12-----|-2--2-------------------|
|----------------------------------------|-0--0-------------------|
|----------------------------------------|------------------------|
|
|  S  S  S  S E  S  S  S  S  S  S  E  E    Q  S S S S S S S S E E
|----------------7--7--7--7--7--7--8-----|-5--5-5-5h7p5p0---------|
|-10-10-10-10---10-10-10-10-10-10-10-----|-5--5-----------5h7h8p0-|
|--7--7--7--7----7--7--7--7--7--7--7-(0)-|-5--5-------------------|
|--7--7--7--7----7--7--7--7--7--7--7-(0)-|-7--7-------------------|
|----------------------------------------|-0--0-------------------|
|----------------------------------------|------------------------|


  Dm            Dm6               Dm7
   S  S  S  S E  S  S  S  S  S  S  E    E
|------------------------------------------|
|-10-10-10-10---12-12-12-12-12-12-13---(0)-|
|-10-10-10-10---10-10-10-10-10-10-10---(0)-|
|-12-12-12-12---12-12-12-12-12-12-12-------|
|------------------------------------------|
|------------------------------------------|
|
|  S  S  S  S E  S  S  S  S  S  S  S S  E
|----------------7--7--7--7----------------|
|-10-10-10-10---10-10-10-10--x--x--x-x-----|
|--7--7--7--7----7--7--7--7--x--x--x-x-(0)-|
|--7--7--7--7----7--7--7--7--x--x--x-x-(0)-|
|------------------------------------------|
|------------------------------------------|


  N.C.
  PM-|                     PM---
  E. E. E     Q.           S S
|------------------------------|
|------------------------------|
|------------------------------|
|------------------------------|
|-3--2-------------------------|
|-3--2---------------------0-0-|
|
| PM-|                     PM---
|       |-3-|
| E. E. S S S S  S S S S S S S
|-------0h5p0--------2h3p0-----|
|-------------5--7p0-----------|
|------------------------------|
|------------------------------|
|-3--2-------------------------|
|-3--2---------------------0-0-|


 ----|                    PM-------|                  PM|
  E. E. E     Q.          S S   E. E. E   Q.          S S
|-----------------------------|---------------------------|
|-----------------------------|---------------------------|
|-----------------------------|---------------------------|
|-----------------------------|---------------------------|
|-3--2------------------------|-3--2----------------------|
|-3--2--------------------0-0-|-1--0------------------0-0-|
|
|----|                    PM-------|                  PM|
|       |-3-| |-3-|
| E. E. S S S S S S S S E S S   E. E. S S S  S S S  E S S
|-----------------------------|-------7------8---7-10-----|
|-------7p5p0-9p5p0-5p0-8-----|-------8---8----8----------|
|-----------------------------|---------9-----------------|
|-----------------------------|---------------------------|
|-3--2------------------------|-3--2----------------------|
|-3--2--------------------0-0-|-1--0------------------0-0-|


  PM-|
  E. E. E   H
|--------------------------|
|--------------------------|
|--------------------------|
|--------------------------|
|-3--2---------------------|
|-1--0---------------------|
|
| PM-|
| E. E. S S S  S  S S  E E
|-------8-----10----8-12---|
|-------8---8----10--------|
|---------9----------------|
|--------------------------|
|-3--2---------------------|
|-1--0---------------------|


  Dm            Dm6               Dm7      Am
   S  S  S  S E  S  S  S  S  S  S  E  E    Q  S S S S S S S S E E
|----------------------------------------|------5-5h7p5p0-----------|
|-10-10-10-10---12-12-12-12-12-12-13-(0)-|----------------5h7h8p0---|
|-10-10-10-10---10-10-10-10-10-10-10-(0)-|-2--2---------------------|
|-12-12-12-12---12-12-12-12-12-12-12-----|-2--2---------------------|
|----------------------------------------|-0--0---------------------|
|----------------------------------------|--------------------------|
|
|  S  S  S  S E  S  S  S  S  S  S  E  E    Q  S S S S S S S S E E
|----------------7--7--7--7--7--7--8-----|-5--5-5-5h7p5p0-----------|
|-10-10-10-10---10-10-10-10-10-10-10-----|-5--5-----------5h7h8p0---|
|--7--7--7--7----7--7--7--7--7--7--7-(0)-|-5--5---------------------|
|--7--7--7--7----7--7--7--7--7--7--7-(0)-|-7--7---------------------|
|----------------------------------------|-0--0---------------------|
|----------------------------------------|--------------------------|


  Dm            Dm6               Dm7
   S  S  S  S E  S  S  S  S  S  S  E  E
|----------------------------------------|
|-10-10-10-10---12-12-12-12-12-12-13-(0)-|
|-10-10-10-10---10-10-10-10-10-10-10-(0)-|
|-12-12-12-12---12-12-12-12-12-12-12-----|
|----------------------------------------|
|----------------------------------------|
|
|  S  S  S  S E  S  S  S  S  S  S  E  E
|----------------7--7--7--7--7--7--8-----|
|-10-10-10-10---10-10-10-10-10-10-10-----|
|--7--7--7--7----7--7--7--7--7--7--7-(0)-|
|--7--7--7--7----7--7--7--7--7--7--7-(0)-|
|----------------------------------------|
|----------------------------------------|


  N.C.
  PM-|                     PM-------|                    PM|
  E. E. E     Q.           S S   E. E. E     Q.          S S
|------------------------------|-----------------------------|
|------------------------------|-----------------------------|
|------------------------------|-----------------------------|
|------------------------------|-----------------------------|
|-3--2-------------------------|-3--2------------------------|
|-3--2---------------------0-0-|-3--2--------------------0-0-|
|
| PM-|                     PM-------|                    PM|
|       |-3-|                          |-3-| |-3-|
| E. E. S S S S  S S S S S S S   E. E. S S S S S S S S E S S
|-------0h5p0--------2h3p0-----|-----------------------------|
|-------------5--7p0-----------|-------7p5p0-9p5p0-5p0-8-----|
|------------------------------|-----------------------------|
|------------------------------|-----------------------------|
|-3--2-------------------------|-3--2------------------------|
|-3--2---------------------0-0-|-3--2--------------------0-0-|


                                              To Coda
                                                        2/4
  PM-|                  PM-------|
  E. E. E   Q.          S S   E. E. E   H                 S  S  E  S  S  E
|---------------------------|--------------------------|-------------------||
|---------------------------|--------------------------|-------------------||
|---------------------------|--------------------------|----------------12-||
|---------------------------|--------------------------|-------12-12h14----||
|-3--2----------------------|-3--2---------------------|-14h15-------------||
|-1--0------------------0-0-|-1--0---------------------|-------------------||
|
| PM-|                  PM-------|
| E. E. S S S  S S S  E S S   E. E. S S S  S  S S  E E    S  S  E  S  S  E
|-------7------8---7-10-----|-------8-----10----8-12---|-------------------||
|-------8---8----8----------|-------8---8----10--------|-------------------||
|---------9-----------------|---------9----------------|----------------12-||
|---------------------------|--------------------------|-------12-12h14----||
|-3--2----------------------|-3--2---------------------|-14h15-------------||
|-1--0------------------0-0-|-1--0---------------------|-------------------||


   Chorus
    (Cmaj7/F)
   4/4
    Gtrs I, II
     E.  S  +E   E  E.  S  +E   E    +E   E  E E  S  S  E  S  S  E
||--------------------------------|--------------------------------|
||o----------------13----------12-|-(12)---------------------------|
||------12-(12)--------12-(12)----|------12-14------------------12-|
||--------------14----------------|--------------------12-12h14----|
||o-------------------------------|--------------14h15-------------|
||--13----------------------------|--------------------------------|


   E.  S  +E   E  E.  S  +E   E    +E   E  E E S  S E S S E
|-------------------------------|---------------------------|
|----------------13----------12-|-(12)----------------------|
|-----12-(12)--------12-(12)----|------12-12--------------7-|
|-------------14----------------|-------------------7-7h9---|
|-------------------------------|--------------9h10---------|
|-13----------------------------|---------------------------|


  (Gmaj7/C)
  E. S +E  E E. S +E  E   +E  E E E S  S E S S E
|-----------------------|------------------------|
|------------8--------7-|-(7)---7----------------|
|----7-(7)------7-(7)---|-----7----------------7-|
|----------9------------|----------------7-7h9---|
|-----------------------|-----------9h10---------|
|-8---------------------|------------------------|


  E. S +E  E E. S +E  E   +E  E E E S S E S S E
|-----------------------|-----------------------|
|------------8--------7-|-(7)---7---------------|
|----7-(7)------7-(7)---|-----7---------------4-|
|----------9------------|---------------4-4h6---|
|-----------------------|-----------6h7---------|
|-8---------------------|-----------------------|


  1.
  (Emaj7)
  E. S +E  E E. S +E  E   +E  E E E S S E S S E
|-----------------------|-----------------------|
|------------5--------4-|-(4)---4---------------|
|----4-(4)------4-(4)---|-----4---------------4-|
|----------6------------|---------------4-4h6---|
|-----------------------|-----------6h7---------|
|-0---------------------|-----------------------|


  E. S +E  E E. S +E  E   +E  E E E  S  S  E  S  S  E
|-----------------------|------------------------------||
|------------5--------4-|-(4)---4---------------------o||
|----4-(4)------4-(4)---|-----4--------------------12--||
|----------6------------|-----------------12-12h14-----||
|-----------------------|-----------14h15-------------o||
|-0---------------------|------------------------------||


  2.
  Gtr I
  E. S +E  E E. S +E  E   +E  E E E S S E S S E
|-----------------------|-----------------------|
|------------5--------4-|-(4)---4---------------|
|----4-(4)------4-(4)---|-----4---------------4-|
|----------6------------|---------------4-4h6---|
|-----------------------|-----------6h7---------|
|-0---------------------|-----------------------|
|
| Gtr II
| E. S +E  E E. S +E  E   +E  E E E S S E S S E
|-----------------------|-----------------------|
|------------5--------4-|-(4)---4---------------|
|----4-(4)------4-(4)---|-----4---------------4-|
|----------6------------|---------------4-4h6---|
|-----------------------|-----------6h7---------|
|-0---------------------|-----------------------|


                             D.S. al Coda
                          C°
                           |--3--|  |--3--|
  E. S +E  E E. S +E  E    Q  Q  Q  Q  Q  Q
|-----------------------|--------------------||
|------------5--4-(4)-0-|--7--7--7--7--7-(0)-||
|----4-(4)---4--4-(4)-0-|--8--8--8--8--8-(0)-||
|----------6------------|-10-10-10-10-10-----||
|-----------------------|--------------------||
|-0---------------------|--------------------||
|
|                          |--3--|  |--3--|
| E. S +E  E E. S +E  E    Q  Q  Q  Q  Q  Q
|-----------------------|--------------------||
|------------5--4-(4)-0-|--4--4--4--4--4-----||
|----4-(4)---4--4-(4)-0-|--5--5--5--5--5-(0)-||
|----------6------------|--x--x--x--x--x-(0)-||
|-----------------------|--3--3--3--3--3-----||
|-0---------------------|--------------------||


   Intro Recap
    &
    Em7
    S S S S E E  S S S S E S S
||-----------------------------|
||o-------------10s8-7p0-5-7-7-|
||--7-7-7-7-7----------------x-|
||--x-x-x-x-x----------------5-|
||o-7-7-7-7-7------------------|
||-----------------------------|
|
|   S S S S E E  S S S S E S S
||-----------------------------|
||o-------------10s8-7p0-5-7-7-|
||--7-7-7-7-7----------------x-|
||--x-x-x-x-x----------------5-|
||o-7-7-7-7-7------------------|
||-----------------------------|


                                     G/C
                  |--3--|  |--3--|
  +S  S E  E   E  E  E  E  E  E  E    S  S  E E  S  S  Q   Q
|-------------------------12-14-15-|--------------------------|
|-(7)---7-(0)----12-14-15----------|-12-12-12---12-12-15--12--|
|-(x)---x-(0)-12-------------------|-12-12-12---12-12-12--12--|
|-(5)---5--------------------------|--x--x--x----x--x--x---x--|
|----------------------------------|-15-15-15---15-15-15--15--|
|----------------------------------|--------------------------|
|
|                 |--3--|  |--3--|
| +S  S E  E   E  E  E  E  E  E  E    S  S  E E  S  S  Q   Q
|-------------------------12-14-15-|--------------------------|
|-(7)---7-(0)----12-14-15----------|-12-12-12---12-12-15--12--|
|-(x)---x-(0)-12-------------------|-12-12-12---12-12-12--12--|
|-(5)---5--------------------------|--x--x--x----x--x--x---x--|
|----------------------------------|-15-15-15---15-15-15--15--|
|----------------------------------|--------------------------|


  1.
  D                D7  D
   S  S  E E  S  S  Q   Q
|--------------------------|
|-10-10-10---10-10-13--10--|
|-11-11-11---11-11-11--11--|
|-12-12-12---12-12-12--12--|
|--------------------------|
|--------------------------|
|
|  S  S  E E  S  S  Q   Q
|--------------------------|
|-10-10-10---10-10-13--10--|
|-11-11-11---11-11-11--11--|
|-12-12-12---12-12-12--12--|
|--------------------------|
|--------------------------|


  G/C                           C°
                                 |--3--|  |--3--|
   S  S  E E  S  S  Q   E  E     Q  Q  Q  Q  Q  Q
|-----------------------------|----------------------||
|-12-12-12---12-12-15--12-(0)-|--7--7--7--7--7-(0)--o||
|-12-12-12---12-12-12--12-(0)-|--8--8--8--8--8-(0)---||
|--x--x--x----x--x--x---x-----|-10-10-10-10-10-------||
|-15-15-15---15-15-15--15-----|---------------------o||
|-----------------------------|----------------------||
|
|                                |--3--|  |--3--|
|  S  S  E E  S  S  Q   E  E     Q  Q  Q  Q  Q  Q
|-----------------------------|----------------------||
|-12-12-12---12-12-15--12-(0)-|--4--4--4--4--4------o||
|-12-12-12---12-12-12--12-(0)-|--5--5--5--5--5-(0)---||
|--x--x--x----x--x--x---x-----|--x--x--x--x--x-(0)---||
|-15-15-15---15-15-15--15-----|--3--3--3--3--3------o||
|-----------------------------|----------------------||


  2.
  D
   S  S  E E  S  S  S  S  S S  S  S E
|------------------------15p0-17s19-0-|
|-10-10-10---10-10-15s17--------------|
|-11-11-11---11-11--------------------|
|-12-12-12---12-12--------------------|
|-------------------------------------|
|-------------------------------------|
|
|  S  S  E E  S  S  S  S  S S  S  S E
|------------------------15p0-17s19-0-|
|-10-10-10---10-10-15s17--------------|
|-11-11-11---11-11--------------------|
|-12-12-12---12-12--------------------|
|-------------------------------------|
|-------------------------------------|


  G/C                           C°
                                 |--3--|  |--3--|
   S  S  E E  S  S  Q   E  E     Q  Q  Q  Q  Q  Q
|-----------------------------|--------------------||
|-12-12-12---12-12-15--12-(0)-|--7--7--7--7--7-(0)-||
|-12-12-12---12-12-12--12-(0)-|--8--8--8--8--8-(0)-||
|--x--x--x----x--x--x---x-----|-10-10-10-10-10-----||
|-15-15-15---15-15-15--15-----|--------------------||
|-----------------------------|--------------------||
|
|                                |--3--|  |--3--|
|  S  S  E E  S  S  Q   E  E     Q  Q  Q  Q  Q  Q
|-----------------------------|--------------------||
|-12-12-12---12-12-15--12-(0)-|--4--4--4--4--4-----||
|-12-12-12---12-12-12--12-(0)-|--5--5--5--5--5-(0)-||
|--x--x--x----x--x--x---x-----|--x--x--x--x--x-(0)-||
|-15-15-15---15-15-15--15-----|--3--3--3--3--3-----||
|-----------------------------|--------------------||


   Tritones lol
    Slower Q=156
    $$
    N.C.
   3/4                4/4                         3/4
    Gtrs I, II
               |-3-|              |-3-|  |--3--|                |--3--|
    E. S +E  E E E E   E. S +E  E E E E  E  E  E   E. S +E   E  E  E  E
||-------------------|---------------------------|----------------------|
||o------------------|---------------------------|----------11-------14-|
||-------------------|----------6-----9-------12-|----9-(9)-------12----|
||-----------5-----8-|----5-(5)-----8------11----|-8-----------11-------|
||o----4-(4)-----7---|-4----------7-----10-------|----------------------|
||--3----------6-----|---------------------------|----------------------|


 4/4
                 |--3--|  |--3--|
  E.  S  +E   E  E  E  E  E  E  E
|------------12-------15-------18--||-|
|----11-(11)-------14-------17----o||-|
|-9-------------12-------15--------||-|
|----------------------------------||-|
|---------------------------------o||-|
|----------------------------------||-|


   3/4                  4/4
    E. S +E  E S S S S   E. S +E  E S S S S  S  S  S  S
||---------------------|--------------------------------|
||o--------------------|--------------------------------|
||---------------------|----------6-----9---------12----|
||-----------5-----8---|----5-(5)-----8---8----11----11-|
||o----4-(4)-----7---7-|-4----------7-------10----------|
||--3----------6-------|--------------------------------|


 3/4                       4/4
  E. S +E   E  S  S  S  S   E.  S  +E   E  S  S  S  S  S  S  S  S
|-------------------------|------------12-------15----------18-----||
|----------11-------14----|----11-(11)-------14----14----17----17-o||
|----9-(9)-------12----12-|-9-------------12----------15-----------||
|-8-----------11----------|----------------------------------------||
|-------------------------|---------------------------------------o||
|-------------------------|----------------------------------------||


                                          To Dbl. Coda
   TP          TP          TP
   W           W           W          H      +Q   +E  E
|-18--------|-15--------|-12--------|-3------(3)--------||
|-17--------|-14--------|-11--------|-2b3r===(2)--(2)p0-||
|-----------|-----------|-----------|-------------------||
|-----------|-----------|-----------|-------------------||
|-----------|-----------|-----------|-------------------||
|-----------|-----------|-----------|-------------------||


 Gr1m Breakdown
  Slower Q=140
  N.C.
 3/4
    PM--------|     PM--------|                   PM----|
          |-3-|           |-3-|                     |-3-|
  E E E E E E E   E E E E E E E   E E E E E E   E E E E E E E
|---------------|---------------|-------------|---------------|
|---------------|---------------|-------------|---------------|
|-3-------------|-6-------------|-5---5---9---|-5-------------|
|-2-------------|-5-------------|-4---4---8---|-4-------------|
|-1-4-3-4-5-4-5-|-4-3-4-3-4-5-4-|-3---3---7---|-3-4-5-4-5-3-4-|
|-0-3-2-3-4-3-4-|-3-2-3-2-3-4-3-|-2---2---6---|-2-3-4-3-4-2-3-|


 4/4              3/4
                     PM--------|     PM--------|
                           |-3-|           |-3-|
  Q   Q   Q   Q    E E E E E E E   E E E E E E E   E E E E E E
|----------------|---------------|---------------|-------------|
|----------------|---------------|---------------|-------------|
|-9--12--15--18--|-3-------------|-6-------------|-5---5---9---|
|-8--11--14--17--|-2-------------|-5-------------|-4---4---8---|
|-7--10--13--16--|-1-4-3-4-5-4-5-|-4-3-4-3-4-5-4-|-3---3---7---|
|-6---9--12--15--|-0-3-2-3-4-3-4-|-3-2-3-2-3-4-3-|-2---2---6---|


                 4/4
                                       \4
    PM----|       TP    TP      TP     ~~~~
      |-3-|
  E E E E E E E   H     H       H      H
|---------------|------------|---------------|
|---------------|------------|---------------|
|-5-------------|-9----12----|-15----[17]----|
|-4-------------|-8----11----|-14------------|
|-3-4-5-4-5-3-4-|-7----10----|-13------------|
|-2-3-4-3-4-2-3-|-6-----9----|-12------------|


 6/4                                     4/4
     PM-----------|      PM-------------------------|    PM--------|
              |-3-|               |-3-|   |----6----|    |----6----|
  Q  Q  Q  Q  Q Q Q   Q  Q  Q  Q  Q Q Q   S S S S S S Q  S S S S S S Q
|-------------------|-------------------|--------------------------------|
|-------------------|-------------------|--------------------------------|
|-------------------|-6-----------------|-------------6--------------6---|
|-8-----------------|-5-----------------|-------------5--------------5---|
|-7--4--3--4--5-4-5-|-4--3--4--3--4-5-4-|-3-3-3-3-3-3-4--3-3-3-3-3-3-4---|
|-6--3--2--3--4-3-4-|-3--2--3--2--3-4-3-|-2-2-2-2-2-2-3--2-2-2-2-2-2-3---|


                              H.=H
                                                   \4
     PM-------------|    PM   TP    TP      TP     ~~~~
                |-3-|
  Q  Q  Q  Q    Q Q Q Q  Q    H     H       H      H
|-------------|-------------|------------|---------------||
|-------------|-------------|------------|---------------||
|-------------|-------5-----|-9----12----|-15----[17]----||
|-8-----------|-------4-----|-8----11----|-14------------||
|-7--4--3--4--|-3-4-4-3--4--|-7----10----|-13------------||
|-6--3--2--3--|-2-3-3-2--3--|-6-----9----|-12------------||


  Slower Q=120
  N.C.
 6/4                                     4/4
                                          PM--------|    PM--------|
              |-3-|               |-3-|   |----6----|    |----6----|
  Q  Q  Q  Q  Q Q Q   Q  Q  Q  Q  Q Q Q   S S S S S S Q  S S S S S S Q
|-------------------|-------------------|--------------------------------|
|-------------------|-------------------|--------------------------------|
|-9-----------------|-------------------|-------------6--------------6---|
|-8--5--4--5--6-5-6-|-5--4--5--4--5-6-5-|-------------5--------------5---|
|-7--4--3--4--5-4-5-|-4--3--4--3--4-5-4-|-3-3-3-3-3-3-4--3-3-3-3-3-3-4---|
|-6--3--2--3--4-3-4-|-3--2--3--2--3-4-3-|-2-2-2-2-2-2-3--2-2-2-2-2-2-3---|


                               TP          TP
                |-3-|
  Q  Q  Q  Q    Q Q Q Q  Q     W           W
|-------------|-------------:-----------:-------|
|-------------|-------------:-11--------:-14----|
|-9-----------|-------------:--9--------:-12----|
|-8--5--4--5--|-6-5-6-4--5--:--8--------:-11----|
|-7--4--3--4--|-5-4-5-3--4--:-----------:-------|
|-6--3--2--3--|-4-3-4-2--3--:-----------:-------|


   TP          TP          TP           TP
   W           W           W           +W
|-----------:-----------:-----------:---------||
|-17--------:-20--------:-23--------:-(23)----||
|-15--------:-18--------:-21--------:-(21)----||
|-14--------:-17--------:-20--------:-(20)----||
|-----------:-----------:-----------:---------||
|-----------:-----------:-----------:---------||


 Interlude
  N.C.
  Wx4          Wx4
|------------|--------|
|------------|--------|
|------------|--------|
|------------|--------|
|------------|--------|
|------------|--------|


  Gtr I
                                      ~~~~~~~
   E  S S  S  S S  S  S S  S  S S  S  S     +S
|-----------------------------------------------|
|-----------------------------------------------|
|----12p0----12p0----12p0----12p0---------------|
|------------------------------------[9]b10r(9)-|
|-12------12------12------12------12------------|
|-----------------------------------------------|


                                      ~~~~~~~
   E  S S  S  S S  S  S S  S  S S  S  S     +S
|-----------------------------------------------|
|-----------------------------------------------|
|----12p0----12p0----12p0----12p0----[9]b10r(9)-|
|-----------------------------------------------|
|-12------12------12------12------12------------|
|-----------------------------------------------|


                                      ~~~~~~~
   E  S S  S  S S  S  S S  S  S S  S  S     +S
|-----------------------------------------------|
|-----------------------------------------------|
|----12p0----12p0----12p0----12p0---------------|
|------------------------------------[9]b10r(9)-|
|-12------12------12------12------12------------|
|-----------------------------------------------|


                      ~~~~~~~     ~~~~~~~~~    ~~~~~~~~~    ~~~~~~~~~
   E  S S  S  S S  S  S     +S   +S      +S   +S      +S   +S      +S
|----------------------------------------------------------------------|
|----------------------------------------------------------------------|
|----12p0----12p0----[9]b10r(9)-([9])b10r(9)-([9])b10r(9)-([9])b10r(9)-|
|----------------------------------------------------------------------|
|-12------12------12---------------------------------------------------|
|----------------------------------------------------------------------|


    Gtrs I, II
     E  S S  S  S S  S  S S  S  S S  S  S S
||------------------------------------------|
||o-----------------------------------------|
||-----12p0----12p0----12p0----12p0----11p0-|
||------------------------------------------|
||o-12------12------12------12------12------|
||------------------------------------------|


   E  S S  S  S S  S  S S  S  S S  S S S
|-----------------------------------------|
|-----------------------------------------|
|----12p0----12p0----12p0----12p0----9p0--|
|-----------------------------------------|
|-12------12------12------12------12------|
|-----------------------------------------|


                                                               ~
   E  S S  S  S S  S  S S  S  S S  S  S S    E  S S  S  S S  S H
|-----------------------------------------|-------------------------|
|-----------------------------------------|-------------------------|
|----12p0----12p0----12p0----12p0----11p0-|----12p0----12p0----9----|
|-----------------------------------------|-------------------------|
|-12------12------12------12------12------|-12------12------12------|
|-----------------------------------------|-------------------------|


    PM----------|   PM  PM  PM    PM----------|   PM  PM  PM
    |-3-|                         |-3-|
  a S S S E S E S E S E S S S   a S S S E S E S E S E S S S
|---------------------2-------|---------------------2-------|
|-----------------5-------5---|-----------------5-------5---|
|-----------------------------|-----------------------------|
|---0h2h4-0-4-0-0---4---4---4-|---0h2h4-0-4-0-0---4---4---4-|
|-0---------------------------|-0---------------------------|
|-----------------------------|-----------------------------|


    PM----------|   PM  PM  PM    PM----------|   PM  PM  PM
    |-3-|                         |-3-|
  a S S S E S E S E S E S S S   a S S S E S E S E S E S S S
|-----------------------------|---------------------2--------||
|-----------------5---5---5---|-----------------5-------5---o||
|-----------------------------|------------------------------||
|---0h2h4-0-4-0-0---4---4---4-|---0h2h4-0-4-0-0---4---4---4--||
|-0---------------------------|-0---------------------------o||
|-----------------------------|------------------------------||


  Gtr I
  S S S S S S S S S S S S S S S S    S  S S S S S S S S  S S S  S S S S
|---------------------------------|-------------------------------------|
|-8-----8-----8-----8-----8-------|--7------7-----7-----10-----10-------|
|---0-------0-----0-----0-----0---|-----0-------0-----0------0------0---|
|-----7---7-----7-----7-----7---7-|-------7---7-----7------7------7---7-|
|---------------------------------|-------------------------------------|
|---------------------------------|-------------------------------------|
|
| Gtr II
| W                                 +W
|---------------------------------|-------------------------------------|
|-8-------------------------------|-(8)---------------------------------|
|---------------------------------|-------------------------------------|
|---------------------------------|-------------------------------------|
|---------------------------------|-------------------------------------|
|---------------------------------|-------------------------------------|


  S S S S S S S S S S S S S S S S
|---------------------------------|
|-8-----8-----8-----8-----8-------|
|---0-------0-----0-----0-----0---|
|-----7---7-----7-----7-----7---7-|
|---------------------------------|
|---------------------------------|
|
| W
|---------------------------------|
|-8-------------------------------|
|---------------------------------|
|---------------------------------|
|---------------------------------|
|---------------------------------|


   S      S  S  S  S  S  S  S  S  S  S  S  S  S  S  S
|------------------------------------------------------||
|-10b11==10-10-10-10-10-10-10-10-10-10-10-10-10-10-10r-||
|--9------9--9--9--9--9--9--9--9--9--9--9--9--9--9--9--||
|------------------------------------------------------||
|------------------------------------------------------||
|------------------------------------------------------||
|
| +W
|------------------------------------------------------||
|-(8)--------------------------------------------------||
|------------------------------------------------------||
|------------------------------------------------------||
|------------------------------------------------------||
|------------------------------------------------------||


   Bridge
    Am7   Am6   Esus2     Em          Am7     Am6 Esus2     Em
    Gtrs I, II
    S S S S S S S S S S S S S S S S   S S S S S S S S S S S S  S  S S S
||------------------------------0---|------------------------------------|
||o-8-8-8-7-7-7-7-7-7-7---8-7-7-7---|-8-8-8-7-7-7-7-7-7-7---8-----0------|
||--5-5-5-5-5-5-9-9-9-9---9-9-9-9---|-5-5-5-5-5-5-9-9-9-9---9-(0)---0----|
||--7-7-7-7-7-7-9-9-9-9---9-9-9-9---|-7-7-7-7-7-7-9-9-9-9---9--9---------|
||o-------------7-7-7-7---7-7-7-7---|-------------7-7-7-7---7------------|
||----------------------------------|------------------------------------|


                                         D.S.S. al Dbl. Coda
  Em      D                 F#m         G
  E S E S E S S S S E S S    E  S  E  S  E  S  S  S  S  E S S
|-------------------------|------------------------------------||
|-8-8-8-8-7-7-7-7-7-7-7-7-|-10-10-10-10-12-12-12-12-13-12-x-x-o||
|-9-9-9-9-7-7-7-7-7-7-7-7-|-11-11-11-11-12-12-12-12-12-12-x-x--||
|-x-x-x-x-x-x-x-x-x-x-x-x-|--x--x--x--x--x--x--x--x--x--x-x-x--||
|-7-7-7-7-5-5-5-5-5-5-5-5-|--9--9--9--9-10-10-10-10-10-10-x-x-o||
|-------------------------|------------------------------------||


 Interlude, again
  Faster Q=162
  &&
  N.C.
  E. a E. S S E. a E. S S   E. a E. S S E. a E. S S   E. a E. S S E. a E. S S
|-------------------------|-------------------------|--------------------------|
|-------------------------|-------------------------|--------------------------|
|-------------------------|-2--2S4--x-x-2--2S4--x-x-|-5--5S7--x-x-5--5S4--x-x--|
|-4--4S5--x-x-4--4S5--x-x-|-4--4S5--x-x-4--4S5--x-x-|-7--7S9--x-x-7--7S5--x-x--|
|-5--5S7--x-x-5--5S7--x-x-|-------------------------|--------------------------|
|-------------------------|-------------------------|--------------------------|


                       |---3---|
  E. a E. S S E. a E.  S   S   S
|---------------------<7>---------|
|-------------------------<7>-----|
|-------------5--5S4----------<7>-|
|-7--7S4--x-x-7--7S5--------------|
|-9--9S6--x-x---------------------|
|---------------------------------|


  E. a E. S S E. a E. S S   E. a E. S S E. a E. S S
|-------------------------|-------------------------|
|-------------------------|-------------------------|
|-------------------------|-2--2S4--x-x-2--2S4--x-x-|
|-4--4S5--x-x-4--4S5--x-x-|-4--4S5--x-x-4--4S5--x-x-|
|-5--5S7--x-x-5--5S7--x-x-|-------------------------|
|-------------------------|-------------------------|


                                             Ebm
   S  S  S S  S  S  S S  S S  S S S S  S S   S S S S S S S S E E Q
|------------------------------------------|------------------------||
|------------------------------------------|------------------------||
|----12-16p0----11-14p0------12p0-----11p0-|-8-8-8-8-4-4-4-4-5------||
|--------------------------9--------7------|-4-4-4-4-x-x-x-x-x------||
|-14---------12---------10--------9--------|-6-6-6-6-2-2-2-2-3------||
|------------------------------------------|------------------------||


    Em                               Gmaj7/Eb
     S  S  S  S  +H      S  S S  S    S  S  S  S  +H.
||--12-----------------------------|-14--------------------|
||o----12---------------------0----|----12-----------------|
||--------12---------------12---12-|-------12--------------|
||-----------14-(14)----14---------|----------13-(13)------|
||o--------------------------------|-----------------------|
||---------------------------------|-----------------------|


  Am
                               |---6----|
   S S S  S S S  S S S  S S S  S S S  S E
|-------------------------------------------|
|-12p8----------12p8----------12-8----------|
|------9-------------9-------------9--------|
|--------10-7----------10-7----------10-----|
|-------------------------------------------|
|-------------------------------------------|


                               |---6----|
   S S S  S S S  S S S  S S S  S S S  S E
|-----------------------------------------|
|-12p8----------12p8----------12-8--------|
|------9-------------9-------------9------|
|--------10-7----------10-7----------10---|
|-----------------------------------------|
|-----------------------------------------|


                                    Ebm6
                                        |-3-|
    E. e. S S e. E. S S     E E E E S S S S S S E.   3x
|--/8--7--x-x-5--7--x-x-|-----------8-8-8-8-8-8------||
|-/10--8--x-x-7--8--x-x-|-/10---8---7-7-7-7-7-7-----o||
|-----------------------|-/11---9---8-8-8-8-8-8------||
|-----------------------|----------------------------||
|-----------------------|---------------------------o||
|-----------------------|----------------------------||


    N.C.
    E. a E. S S E. a E. S S
||--------------------------|
||o-------------------------|
||--------------------------|
||--4--4S5--x-x-4--4S5--x-x-|
||o-5--5S7--x-x-5--5S7--x-x-|
||--------------------------|


  E. a E. S S E. a E. S S   E. a E. S S E. a E. S S
|-------------------------|-------------------------|
|-------------------------|-------------------------|
|-2--2S4--x-x-2--2S4--x-x-|-5--5S7--x-x-5--5S4--x-x-|
|-4--4S5--x-x-4--4S5--x-x-|-7--7S9--x-x-7--7S5--x-x-|
|-------------------------|-------------------------|
|-------------------------|-------------------------|


                       |---3---|
  E. a E. S S E. a E.  S   S   S
|---------------------<7>---------|
|-------------------------<7>-----|
|-------------5--5S4----------<7>-|
|-7--7S4--x-x-7--7S5--------------|
|-9--9S6--x-x---------------------|
|---------------------------------|


  E. a E. S S E. a E. S S   E. a E. S S E. a E. S S
|-------------------------|-------------------------|
|-------------------------|-------------------------|
|-------------------------|-2--2S4--x-x-2--2S4--x-x-|
|-4--4S5--x-x-4--4S5--x-x-|-4--4S5--x-x-4--4S5--x-x-|
|-5--5S7--x-x-5--5S7--x-x-|-------------------------|
|-------------------------|-------------------------|


  1.
  Bm          Am          G           F#m           Ebm
   S  S  S  S  S  S  S  S  S  S  S  S  S  S  S  S   S S S S S S S S E E Q
|-------------------------------------------------|-------------------------||
|-------------------------------------------------|------------------------o||
|-16-16-16-16-14-14-14-14-12-12-12-12-11-11-11-11-|-8-8-8-8-4-4-4-4-5-------||
|-12-12-12-12-10-10-10-10--9--9--9--9--7--7--7--7-|-4-4-4-4-x-x-x-x-x-------||
|-14-14-14-14-12-12-12-12-10-10-10-10--9--9--9--9-|-6-6-6-6-2-2-2-2-3------o||
|-------------------------------------------------|-------------------------||


  2.
  Bm         Am         G         F#m        Ebm
   S  S  S S  S  S  S S  S S  S S S S  S S   S S S S S S S S E E Q
|------------------------------------------|------------------------||
|------------------------------------------|-----------------0------||
|----12-16p0----11-14p0------12p0-----11p0-|-8-8-8-8-4-4-4-4-5------||
|--------------------------9--------7------|-4-4-4-4-x-x-x-x-x------||
|-14---------12---------10--------9--------|-6-6-6-6-2-2-2-2-3------||
|------------------------------------------|------------------------||


   Breakdown
    Slower Q=156
    N.C.
                                             Gtr I
       PM    PM-|    PM----|        PM---|
                                              |---------6---------|
     S E.  S E. E  S S S S S   S    E. S E E  S  S  S  S  S   a   S  S  S  E
||--------------------------------|----------12h14h15p14-12-(12)s10-12h14p12-|
||o-13----13------13----------13--|------------------------------------------|
||--16----16------16----------16--|------------------------------------------|
||---------------------------(17)-|------------------------------------------|
||o----0-----0--0----0-0-0-0------|-0--0-0-----------------------------------|
||--------------------------------|------------------------------------------|


  Gtrs I, II                           Gtr I
     PM    PM-|    PM--|
                   |-3-|    |-3-|      |-3-|  |-3-|
   S E.  S E. E  E E E E    E E E  E E E E E  E E E
|------------------------|-------------------10p0---|
|--8-----8-------8-------|--8------8---7-8-7------0-|
|-11----11------11-------|-11-----11----------------|
|------------------------|--------------------------|
|------------------------|--------------------------|
|----0-----0--0----0-0-0-|----0-0-------------------|


  Gtrs I, II                               Gtr I
     PM    PM-|    PM----|        PM---|
                                            |---------6---------|
   S E.  S E. E  S S S S S   S    E. S E E  S  S  S  S  S   a   S  S  S  E
|-------------------------------|----------12h14h15p14-12-(12)s10-12h14p12-|
|-13----13------13----------13--|------------------------------------------|
|-16----16------16----------16--|------------------------------------------|
|--------------------------(17)-|------------------------------------------|
|----0-----0--0----0-0-0-0------|-0--0-0-----------------------------------|
|-------------------------------|------------------------------------------|


                        1.                        2.
  F#7                    Fmaj7
  Gtrs I, II
                                                             \2
  PM     PM              PM     PM        PM-------|      PM
  E S E. E S S S S e E   E S E. E S S S S e e      E S E. E  H
|----------0h2p0-------|----------0h1p0--------||------------------||
|-----2--------------0-|-----1----------1-----o||------1-----------||
|-----3----------3---4-|-----2-----------------||------2----<5>----||
|-2---2--2---------4---|------------------2-2--||------------------||
|-4------4-------------|-3------3---------0-0-o||--3------3--------||
|-2------2-------------|-1------1--------------||--1------1--------||


 Breakdown Part II
  Slower Q=116
  N.C.
 7/8                          4/4
  PM   PM|   PM----------------|    PM|
                                        |----6----| |----6----|
  E. S E E E T T T T T T T T   E. S E E S S S S S S S S S S S S
|----------------------------|-----------------------------------|
|----------------------------|-----------------------------------|
|----9-----9-----------------|----9------------------------------|
|----8-----8-----------------|----8------------------------------|
|----7-----7-----------------|----7------------------------------|
|-0----0-0---0-5-7-8-7-5-7-5-|-0----0-0-3p0h3p0h3p0h3p0h3p0h3p0--|


 7/8                          4/4
  PM   PM|   PM----------------|    PM|
  E. S E E E T T T T T T T T   E. S E E  Q      +Q
|----------------------------|-----------------------|
|----------------------------|----------12-----(12)--|
|----9-----9-----------------|----9-----14b16--(14)--|
|----8-----8-----------------|----8------------------|
|----7-----7-----------------|----7------------------|
|-0----0-0---0-5-7-8-7-5-7-5-|-0----0-0--------------|


 7/8
  PM   PM|   PM------------|
  E. S E E E T T T T T T T T
|-----------------------------|
|-----------------------------|
|----9-----9------------------|
|----8-----8------------------|
|----7-----7------------------|
|-0----0-0---0-5-7-8-7-5-7-5--|


 4/4                  7/8                          4/4
                                                              \0.5____/
  PM   PM|             PM   PM|   PM----------------|    PM|
  E. S E E E  E E  E   E. S E E E T T T T T T T T   E. S E E  E      +E   +Q
|--------------------|----------------------------|----------------------------|
|------------12---12-|----------------------------|----------------------------|
|----9-------15---15-|----9-----9-----------------|----9-----<5>----(<5>)-(5)--|
|----8---------------|----8-----8-----------------|----8-----<5>----(<5>)-(5)--|
|----7---------------|----7-----7-----------------|----7-----------------------|
|-0----0-0-----------|-0----0-0---0-5-7-8-7-5-7-5-|-0----0-0-------------------|


             PM------------------|
           |----6----| |----6----|
  E. S E E S S S S S S S S S S S S   E. S E E S  S  S  S S  S  S  S
|----------------------------------|--------------------------------|
|----------------------------------|------------12s11s12---12s11s12-|
|----9-----9-----------------------|----9-------15s14s15---15s14s15-|
|----8-----8-----------------------|----8---------------------------|
|----7-----7-------------------5-6-|----7---------------------------|
|-0----0-0---5-6-7-8-7-6-5-7-8-----|-0----0-0-----------------------|


                                              Gtr III
       PM|   PM------------------|            TP
           |----6----| |----6----|
  E. S E E S S S S S S S S S S S S   E. S E E H
|----------------------------------|----------x----|
|----------------------------------|----------x----|
|----9-----9-----------------------|----9-----x----|
|----8-----8-----------------------|----8----------|
|----7-----7-------------------5-6-|----7----------|
|-0----0-0---5-6-7-8-7-6-5-7-8-----|-0----0-0------|


  Gtrs I, II                                      Gtr III
             PM------------------|                TP
           |----6----| |----6----|
  E. S E E S S S S S S S S S S S S   E. S E E E E Q
|----------------------------------|--------------x--|
|----------------------------------|--------------x--|
|----9-----9-----------------------|----9---------x--|
|----8-----8-----------------------|----8------------|
|----7-----7-------------------5-6-|----7------------|
|-0----0-0---5-6-7-8-7-6-5-7-8-----|-0----0-0-3------|


  Gtrs I, II
             PM----------------------|
           |----6----| |----6----|            |----6----| |----6----|
  E. S E E S S S S S S S S S S S S   E. S E E S S S S S S S S S S S S
|----------------------------------|----------------------------------|
|----------------------------------|----------------------------------|
|----9-----9-----------------------|----9-----------------------------|
|----8-----8-----------------------|----8-----------------------------|
|----7-----7-------------------5-6-|----7-----------------------------|
|-0----0-0---5-6-7-8-7-6-5-7-8-----|-0----0-0-3p0h3p0h3p0h3p0h3p0h3p0-|


  |----6----| |----6----| |----6----| |----6----|
  S S S S S S S S S S S S S S S S S S S S S S S S
|-------------------------------------------------:
|-------------------------------------------------:
|-------------------------------------------------:
|-------------------------------------------------:
|-------------------------------------------------:
|-3p0h3p0h3p0h3p0h3p0h3p0-3p0h3p0h3p0h3p0h3p0h3p0-:


  H.=H                                                        Q=76    Q=116
                                                                     1/4
                                                               ~~
  |----6----| |----6----|
  S S S S S S S S S S S S S S S S S S S S   S S S S  S S  S S  H       Q
|-----------------------------------------:-------------------------|-------|
|-----------------------------------------:-------------------------|-------|
|-----------------------------------------:-------------------------|-------|
|-----------------------------------------:-------------------------|-------|
|-----------------------------------------:-------------------------|-14\---|
|-3p0h3p0h3p0h3p0h3p0h3p0-4p0-5p0-6p0-7p0-:-8p0-9p0-10p0-11p0-12----|-12\---|


   Breakdown Part III
   4/4
    PM           PM----------------|
                   |----6----| |-3-|
    e.  S   +E   E S S S S S S S S S E
||-------------------------------------|
||o----<5>-(<5>)-----------------------|
||-----<5>-(<5>)-----------------------|
||---------------------------------2-4-|
||o-2--------------3-4-5-4-5-6-5-6-----|
||--0------------0---------------------|


                    E5          EbE5          Ebm
 5/4
                    PM--------|   PM--------|
  |-4:3-|           |----6----|   |----6----|
  S S S S S S S S S S S S S S S E S S S S S S E
|-0h7p0-----------------------------------------|
|-------0h7p0-------------------7-------------7-|
|-------------8s5-4-------------8-------------8-|
|-------------------9-9-9-9-9-9-x-9-9-9-9-9-9-x-|
|-------------------7-7-7-7-7-7-6-7-7-7-7-7-7-6-|
|-----------------------------------------------|


  1.
 4/4
  PM       PM----------------|
             |----6----| |-3-|
  e. S +E  E S S S S S S S S S E
|--------------------------------|
|----0-(0)-------------------4-5-|
|----0-(0)---4-5-6-5-6-7-6-7-----|
|--------------------------------|
|-2------------------------------|
|-0--------0---------------------|


                        Em          B Em          B
 5/4
                        PM--------|   PM--------|
  |-4:3--|              |----6----|   |----6----|
  S  S S S  S S  S  S S S S S S S S E S S S S S S E
|-0h15p0---------------------------------------------||
|--------0h15p0---------------------4-------------4-o||
|---------------16s12-0-------------4-------------4--||
|-----------------------5-5-5-5-5-5-x-5-5-5-5-5-5-x--||
|-----------------------7-7-7-7-7-7-2-7-7-7-7-7-7-2-o||
|----------------------------------------------------||


  2.
 4/4
  PM       PM----------------|
             |----6----| |-3-|
  e. S +E  E S S S S S S S S S E
|--------------------------------|
|----0-(0)-------------------4-5-|
|----0-(0)---4-5-6-5-6-7-6-7-----|
|--------------------------------|
|-2------------------------------|
|-0--------0---------------------|


                        C                 B  C                 B
 5/4
  |-4:3--|               |------6-------|     |------6-------|
  S  S S S  S S  S  S S  S  S  S  S  S  S  e  S  S  S  S  S  S  e
|-0h15p0----------------------------------------------------------||
|--------0h15p0---------17-17-17-17-17-17-16-17-17-17-17-17-17-16-||
|---------------16s12-0-17-17-17-17-17-17-16-17-17-17-17-17-17-16-||
|------------------------x--x--x--x--x--x--x--x--x--x--x--x--x--x-||
|-----------------------15-15-15-15-15-15-14-15-15-15-15-15-15-14-||
|-----------------------------------------------------------------||


   Outro
    B         C           D         Em          Ebm       Am
   6/8
    S S S E S S S S E S   S S S E S S S S E S   S S S E S  S  S S  E  S
||----------------------|---------------------|--------------------------|
||o-4-4---4-4-5-5---5-5-|-7-7---7-7-8-8---8-8-|-7-7---7-7-13-13---13-13--|
||--4-4---4-4-5-5---5-5-|-7-7---7-7-9-9---9-9-|-8-8---8-8-14-14---14-14--|
||--x-x---x-x-x-x---x-x-|-x-x---x-x-x-x---x-x-|-x-x---x-x--x--x----x--x--|
||o-2-2---2-2-3-3---3-3-|-5-5---5-5-7-7---7-7-|-6-6---6-6-12-12---12-12--|
||----------------------|---------------------|--------------------------|


  C                 B  C                 B
   |------6-------|     |------6-------|
   S  S  S  S  S  S  e  S  S  S  S  S  S  e
|--------------------------------------------||-|
|-17-17-17-17-17-17-16-17-17-17-17-17-17-16-o||-|
|-17-17-17-17-17-17-16-17-17-17-17-17-17-16--||-|
|--x--x--x--x--x--x--x--x--x--x--x--x--x--x--||-|
|-15-15-15-15-15-15-14-15-15-15-15-15-15-14-o||-|
|--------------------------------------------||-|


    B/F#      C/G         D/A       Em/B
    E S S S S E S S S S   E S S S S E S S S S
||----------------------|-----------------------|
||o-4-4-4-4-4-5-5-5-5-5-|-7-7-7-7-7-8-8-8-8-8---|
||--x-x-x-x-x-x-x-x-x-x-|-x-x-x-x-x-x-x-x-x-x---|
||--4-4-4-4-4-5-5-5-5-5-|-7-7-7-7-7-9-9-9-9-9---|
||o-2-2-2-2-2-3-3-3-3-3-|-5-5-5-5-5-7-7-7-7-7---|
||--2-2-2-2-2-3-3-3-3-3-|-5-5-5-5-5-7-7-7-7-7---|


  Ebm       Am               C                 B  C                 B
                              |------6-------|     |------6-------|
  E S S S S  E  S  S  S  S    S  S  S  S  S  S  e  S  S  S  S  S  S  e
|--------------------------|--------------------------------------------||
|-7-7-7-7-7-13-13-13-13-13-|-17-17-17-17-17-17-16-17-17-17-17-17-17-16-o||
|-8-8-8-8-8-14-14-14-14-14-|-17-17-17-17-17-17-16-17-17-17-17-17-17-16--||
|-x-x-x-x-x--x--x--x--x--x-|--x--x--x--x--x--x--x--x--x--x--x--x--x--x--||
|-6-6-6-6-6-12-12-12-12-12-|-15-15-15-15-15-15-14-15-15-15-15-15-15-14-o||
|--------------------------|--------------------------------------------||


  C                 B  C                 D
   |------6-------|     |------6-------|
   S  S  S  S  S  S  e  S  S  S  S  S  S  e
|--------------------------------------------|
|-17-17-17-17-17-17-16-17-17-17-17-17-17-19--|
|-17-17-17-17-17-17-16-17-17-17-17-17-17-19--|
|--x--x--x--x--x--x--x--x--x--x--x--x--x--x--|
|-15-15-15-15-15-15-14-15-15-15-15-15-15-17--|
|--------------------------------------------|


  Em
   Q   H      W        W        W
|-----------|--------|--------|------*|
|-20\-------|--------|--------|------*|
|-21\-------|--------|--------|------*|
|--x--------|--------|--------|------*|
|-19\-------|--------|--------|------*|
|-----------|--------|--------|------*|



Duration Legend
---------------
W - whole; H - half; Q - quarter; E - 8th; S - 16th; T - 32nd; X - 64th; a - acciaccatura
+ - note tied to previous; . - note dotted; .. - note double dotted
Uncapitalized letters represent notes that are staccato (1/2 duration)
Irregular groupings are notated above the duration line
Duration letters will always appear directly above the note/fret number it represents the
duration for.  Duration letters with no fret number below them represent rests.  Multi-
bar rests are notated in the form Wxn, where n is the number of bars to rest for.  Low
melody durations appear below the staff

Tablature Legend
----------------
 h   - hammer-on
 p   - pull-off
 b   - bend
 pb  - pre-bend
 r   - bend release (if no number after the r, then release immediately)
 /\  - slide into or out of (from/to "nowhere")
 s   - legato slide
 S   - shift slide
 - natural harmonic
[n]  - artificial harmonic
n(n) - tapped harmonic
 ~   - vibrato
 tr  - trill
 T   - tap
 TP  - trem. picking
 PM  - palm muting
\n/  - tremolo bar dip; n = amount to dip
 \n  - tremolo bar down
 n/  - tremolo bar up
/n\  - tremolo bar inverted dip
 =   - hold bend; also acts as connecting device for hammers/pulls
 <> - volume swell (louder/softer)
 x   - on rhythm slash represents muted slash
 o   - on rhythm slash represents single note slash

Misc Legend
-----------
 |  - bar
||  - double bar
||o - repeat start
o|| - repeat end
*|  - double bar (ending)
 :  - bar (freetime)
 $  - Segno
 &  - Coda
Tempo markers -  = BPM(8/16=s8/s16), where s8 = swing 8ths, s16 = swing 16ths

comments
print report bad tab
I want to post or [tab]
guest
You may want to rate the tab now too:
select rating
Please do not post tabs as comments. Select "correction" instead!