Oops, an error
Loading. Please wait.

Battleship Graveyard Tab

ver2
ver2

Intro

Whole song

Interactive

More versions @911Tabs.com
7,733 views 6 this week
5 commentsread comments
1 2 3 4 5
excellent!
x 3
Autoscroll
+/-
esc
set tempo
stop
Contributor
Difficulty
Tuning
advanced
D G C F A D
WARNING: You are trying to view
                                    content from Ultimate-Guitar.com
                                    in an unauthorized application,
                                    which is prohibited.

                                    Please use an official Ultimate
                                    Guitar Tabs application for iPhone,
                                    iPad or Android to access legitimate
                                    chords, guitar, bass, and drum tabs
                                    from Ultimate-Guitar.com database.

                                    Type "ultimate guitar tabs" in Apple
                                    App Store's or Android Market's
                                    search to find the application.
-------------------------------------------------------------------------------
                             Battleship Graveyard - The Fall of Troy
-------------------------------------------------------------------------------


Verse
e|------------------------------------------------------------------10p0---------|
B|---------7p0----7p0--------10p0-7p0-10p0--------7p0----7p0------------10p0-7p0-|
G|------------7p0------------------------------------7p0-------------------------|
D|--9--9-9------------9--9-9---------------9--9-9------------9--9-9--------------|
A|--9--9-9------------9--9-9---------------9--9-9------------9--9-9--------------|
D|--9--9-9------------9--9-9---------------9--9-9------------9--9-9--------------|

e|----------------------------------------------------------|
B|----------------------------------------------------------|
G|---------------------7p0---7p0-------------467679791197---|
D|--5-5-7p0---7p0--5-5----7p0-----5-5-----457---------------|
A|--5-5----9p0-----5-5------------5-5--457------------------|
D|--5-5------------5-5------------5-5-----------------------| x2
pm        ......      .........        .................        
                                  
e|-------------------10p7---------------10p79p7-------|
B|-------7h8p710p78p7----8p7-------7h8p7-------10p7h8-|
G|----------------------------------------------------|
D|-99999---------------------99999--------------------|
A|-99999---------------------99999--------------------|
D|-99999---------------------99999--------------------|
pm .....                     .....
e|-------------------------------------|
B|-------------------------------------|
G|--7-7------7-7------7-7------6--6----|
D|--8-8------8-8------7-7------4--4----|
A|--5-5--00--5-5--00--5-5--00--5--5----|
D|--5-5--00--5-5--00--5-5--00--0--0----| x2
pm       ..       ..       ..

e|-5p3-----------------|
B|----3---5/7----------|
G|-----3-3---6---------|
D|------4-----8--------|
A|-------------9p0-5---|
D|---------------------|
 |                     |
e|---------------------|
B|-8~------------------|
G|-9~--------------7~--|
D|-7~--------------7~--|
A|-----------------9~--|
D|---------------------|

e|------------------------------------------------------------------10p0---------|
B|---------7p0----7p0--------10p0-7p0-10p0--------7p0----7p0------------10p0-7p0-|
G|------------7p0------------------------------------7p0-------------------------|
D|--9--9-9------------9--9-9---------------9--9-9------------9--9-9--------------|
A|--9--9-9------------9--9-9---------------9--9-9------------9--9-9--------------|
D|--9--9-9------------9--9-9---------------9--9-9------------9--9-9--------------|

e|----------------------------------------------------------|
B|----------------------------------------------------------|
G|---------------------7p0---7p0-------------467679791197---|
D|--5-5-7p0---7p0--5-5----7p0-----5-5-----457---------------|
A|--5-5----9p0-----5-5------------5-5--457------------------|
D|--5-5------------5-5------------5-5-----------------------| x2
pm      .........      .........       .................

e|-------------------10p7---------------10p79p7-------|
B|-------7h8p710p78p7----8p7-------7h8p7-------10p7h8-|
G|----------------------------------------------------|
D|-99999---------------------99999--------------------|
A|-99999---------------------99999--------------------|
D|-99999---------------------99999--------------------|
pm .....                     .....

e|-------------------------------------|
B|-------------------------------------|
G|--7-7------7-7------7-7------6--6----|
D|--8-8------8-8------7-7------4--4----|
A|--5-5--00--5-5--00--5-5--00--5--5----|
D|--5-5--00--5-5--00--5-5--00--0--0----| x2
pm       ..       ..       ..

e|-----------10p7--10p7-10p7-----------10p79p7--------|
B|------7h8p7----7-----7----------7h8p7-------10p78p7-|
G|----------------------------------------------------|
D|-9999----------------------9999---------------------|
A|-9999----------------------9999---------------------|
D|-9999----------------------9999---------------------|
 |                                                    |
e|----------------------------------------------------|
B|----------------------------------------------------|
G|--------14141414-11111111---------14141414-7777-----|
D|-9999----------------------9999---------------------|
A|-9999---12121212-9999------9999---12121212-5555-----|
D|-9999----------------------9999---------------------|

e|---------------------------------|
B|---------------------------------|
G|--7-7------7-7------7------------|
D|--8-8------8-8------7-----0-0----|
A|--5-5--00--5-5--00--5-----0-0----|
D|--5-5--00--5-5--00--5/12\-0-0----|
pm       ..       ...

e|-----------10p7--10p7-10p7-----------10p79p7--------|
B|------7h8p7----7-----7----------7h8p7-------10p78p7-|
G|----------------------------------------------------|
D|-9999----------------------9999---------------------|
A|-9999----------------------9999---------------------|
D|-9999----------------------9999---------------------|
 |                                                    |
e|----------------------------------------------------|
B|----------------------------------------------------|
G|--------14141414-11111111---------14141414-7777-----|
D|-9999----------------------9999---------------------|
A|-9999---12121212-9999------9999---12121212-5555-----|
D|-9999----------------------9999---------------------|

e|---------------------------------|
B|---------------------------------|
G|--7-7------7-7------7-7----------|
D|--8-8------8-8------7-7--0-0-----|
A|--5-5--00--5-5--00--5-5--0-0-----|
D|--5-5--00--5-5--00--5-5--0-0-----|
pm       ..       ..


Breakdown
e|-----------------------------|
B|---0-------------0-----------|
G|---3---3p2p0-----3-----------|
D|-2---2-------0-2---2---------|
A|-2---2-------0-2---2-000000--|
D|-2---2-------0-2---2-000000--| x2
pm .   .       . .   . ......

e|--------------------------------|
B|--------------------------------|
G|----6-----6/9-----9------12/15--|
D|-5-----5-------8-----11---------|
A|-5--4--5--4/7--8--7--11--10/13--|
D|-5-----5-------8-----11---------| 

Slower
e|---------------------------|
B|---0-------------0---------|
G|---3---3p2p0-----3---------|
D|-2---2-------0-2---2-------|
A|-2---2-------0-2---2-2-00--|
D|-2---2-------0-2---2-2-00--| 
pm                     . ..
 
e|-----------------------------|
B|---0-------------0----131313-|
G|---3---3p2p0-----3----161616-|
D|-2---2-------0-2---2---------|
A|-2---2-------0-2---2--151515-|
D|-2---2-------0-2---2---------| 

e|-----------------------------------|
B|-----------------------------------|
G|----6-----6/9-----9------12/15--7*-|
D|-5-----5-------8-----11------------|
A|-5--4--5--4/7--8--7--11--10/13-----|
D|-5-----5-------8-----11------------| 


e|------------8p0----------------------------8p0-----------------------|
B|-------6p0--------------6p0-----------6p0-------------6p0---7-8--7-8-|
G|----------7----------------7-------------7---------------7--7-9--7-9-|
D|-2--------------0-2----------0--2--------------0-2-------------------|
A|-2--------------0-2----------0--2--------------0-2-------------------|
D|-2-222----------0-2-222------0--2-222----------0-2-222---------------| x2
pm   ...    .         ...    .      ...    .         ...    .                 

e|-------------------------------------------------------------|
B|-11----11------11-------11------------12-------8-------8-8\--|
G|-10----10------10-------10------------12-------7-------7-7\--|
D|-------------------------------------------------------------|
A|-9-999-9-99999-9--99999-9--1010101010-10-66666-6-66666-6-6\--|
D|-------------------------------------------------------------| 
pm   ...   .....    .....    .....   .....   .....


e|-------------------------------10-----12p10------------|
B|-88-7-77--------0h7p0-01087---8---8--------12p10-------|
G|-77-7-77--0h7p0-------------11-----11-----------11-12*-|
D|-55-5-55-----------------------------------------------|
A|-77-7-77-----------------------------------------------|
D|-------------------------------------------------------| 

e|------------------------------------------------------------------|
B|-----------------------------------101010-10-1010--131313-12-1212-|
G|--------------0h11p0-0h7p0---------111111-11-1111--141414-14-1414-|
D|-1212-12-1212--------------0h7/9\7-131313-13-1313--161616-16-1616-|
A|-1010-10-1010-----------------------------------------------------|
D|-1010-10-1010-----------------------------------------------------| x3


e|------------8p0----------------------------8p0-----------------------|
B|-------6p0--------------6p0-----------6p0-------------6p0---7-8--7-8-|
G|----------7----------------7-------------7---------------7--7-9--7-9-|
D|-2--------------0-2----------0--2--------------0-2-------------------|
A|-2--------------0-2----------0--2--------------0-2-------------------|
D|-2-222----------0-2-222------0--2-222----------0-2-222---------------| x2
pm   ...    .         ...    .      ...    .         ...    .                  

e|----------------------------------------------------------------------|
B|-11----11------11-------11------------12-------8-------8--------4-4-4-|
G|-10----10------10-------10------------12-------7-------7--------0-0-0-|
D|----------------------------------------------------------1-1-1-1-1-1-|
A|-9-999-9-99999-9--99999-9--1010101010-10-66666-6-66666-6--3-3-3-3-3-3-|
D|----------------------------------------------------------------------| 
pm   ...   .....    .....    .....   .....   .....    . . . 

not sure at all
mess around here with whatever sounds good
e|---------------------------------------------------|
B|------3p0----3p0----3p0---------3p0---3p0---3p0----|
G|---------------------------------------------------|
D|-2-2~-----2~-----2~-----2-2~-2~----2~-----2~----2~-|
A|-2-2~-----2~-----2~-----2-2~-2~----2~-----2~----2~-|
D|-2-2~-----2~-----2~-----2-2~-2~----2~-----2~----2~-| 

e|-------------------------------------------------------------------|
B|-----5------5------5------5----------------------------------------|
G|---6--6----6-6----6-6----6-6---------------------------------------|
D|-8~----8-8~---8-8~---8-8~---8-999999111111111111999999111111111111-|
A|-5~------5~-----5~-----5~-----121212121212121212121212121212121212-|
D|-5~------5~-----5~-----5~-----999999999999999999999999999999999999-| 


e|------------------|
B|--14-------17-----|
G|--12-------15-----|
D|--11 x20---14 x20-|
A|------------------|
D|------------------|  x2

Little solo
e|--14--14------17----17------14---14----17----15-----|
B|----15--15--15----15--15-------15--15----15----15---|
G|----------16------------16-----------16----16----16-|
D|----------------------------------------------------|
A|----------------------------------------------------|
D|----------------------------------------------------| 

e|--------------------------------------------------------------|
B|-------15-17-17b19r17-15---17b19r17-15------------------------|
G|----15------------------15------------15-14b15r14-12-12h14p12-|
D|-17-----------------------------------------------------------|
A|--------------------------------------------------------------|
D|--------------------------------------------------------------| 

Verse
e|------------------------------------------------------------------10p0---------|
B|---------7p0----7p0--------10p0-7p0-10p0--------7p0----7p0------------10p0-7p0-|
G|------------7p0------------------------------------7p0-------------------------|
D|--9--9-9------------9--9-9---------------9--9-9------------9--9-9--------------|
A|--9--9-9------------9--9-9---------------9--9-9------------9--9-9--------------|
D|--9--9-9------------9--9-9---------------9--9-9------------9--9-9--------------|

e|----------------------------------------------------------|
B|----------------------------------------------------------|
G|---------------------7p0---7p0-------------467679791197---|
D|--5-5-7p0---7p0--5-5----7p0-----5-5-----457---------------|
A|--5-5----9p0-----5-5------------5-5--457------------------|
D|--5-5------------5-5------------5-5-----------------------| x2
pm      .........      .........       ................. 



e|----------------|
B|----------------|
G|----------------|
D|-9-9-99-12/7----|
A|-9-9-99-12/7----|
D|-9-9-99-12/7----| x3

e|---------------------|--------------------|
B|---------------------|--------------------|
G|---------------------|--------------------|
D|-9-----9---12------7-|----9-----9---4-3-2-|
A|-9-999-9-9-12-1212-7-|----9-999-9-9-4-3-2-|
D|-9-999-9-9-12-1212-7-|x3--9-999-9-9-4-3-2-| x2
pm   ...   .   ..         ...   .                       

e|---------------------|-----------------------|
B|---------------------|-----------------------|
G|---------------------|-----------------------|
D|-9-----9---12------7-|----4-3-2-0-2-0~--9-9\-|
A|-9-999-9-9-12-1212-7-|----4-3-2-0-2-0~--9-9\-|
D|-9-999-9-9-12-1212-7-|x3--4-3-2-0-2-0~--9-9\-| 
pm   ...   .   ..          
                                      

| b bend
| r release
| /  slide up
| \  slide down
| h  hammer-on
| p  pull-off
| ~  let ring
| +  harmonic
| x  Mute note
===============================================================================
comments
We did not receive enough feedback on this tab! Please rate:
print report bad tab
1 2 3 4 5
5 comments total. Showing first comments.
+1 reply
GODhimself37 wrote on October 21 2009, 03:09 pm

fantastic

0 reply
Dauh wrote on October 22 2009, 01:50 pm

thanks

0 reply
Dauh wrote on November 4 2009, 02:58 pm

got the numbers mixed around. this is the part in the beginning

e|-5p3-----------------|
B|----3---5/7----------|
G|-----3-3---6---------|
D|------4-----8--------|
A|-------------9p0-5---|
D|---------------------|
| |
e|---------------------|
B|-8~------------------|
G|-7~--------------7~--|
D|-9~--------------7~--|
A|-----------------9~--|
D|---------------------|

I want to post or [tab]
guest
You may want to rate the tab now too:
select rating
Please do not post tabs as comments. Select "correction" instead!